  0
SECTION
  2
HEADER
  9
$ACADVER
  1
AC1014
  9
$ACADMAINTVER
 70
     5
  9
$DWGCODEPAGE
  3
ANSI_1252
  9
$INSBASE
 10
407.9
 20
1513.228827
 30
0.0
  9
$EXTMIN
 10
223.085151
 20
1247.095466
 30
-0.000006
  9
$EXTMAX
 10
592.666291
 20
1659.132207
 30
0.000026
  9
$LIMMIN
 10
0.0
 20
0.0
  9
$LIMMAX
 10
3360.0
 20
2376.0
  9
$ORTHOMODE
 70
     1
  9
$REGENMODE
 70
     1
  9
$FILLMODE
 70
     1
  9
$QTEXTMODE
 70
     0
  9
$MIRRTEXT
 70
     0
  9
$DRAGMODE
 70
     2
  9
$LTSCALE
 40
1.0
  9
$OSMODE
 70
     0
  9
$ATTMODE
 70
     1
  9
$TEXTSIZE
 40
3.5
  9
$TRACEWID
 40
0.05
  9
$TEXTSTYLE
  7
ROMANS
  9
$CLAYER
  8
035-DWG
  9
$CELTYPE
  6
BYLAYER
  9
$CECOLOR
 62
   256
  9
$CELTSCALE
 40
1.0
  9
$DELOBJ
 70
     1
  9
$DISPSILH
 70
     0
  9
$DIMSCALE
 40
8.0
  9
$DIMASZ
 40
2.5
  9
$DIMEXO
 40
1.5
  9
$DIMDLI
 40
5.0
  9
$DIMRND
 40
0.0
  9
$DIMDLE
 40
0.0
  9
$DIMEXE
 40
1.0
  9
$DIMTP
 40
0.0
  9
$DIMTM
 40
0.0
  9
$DIMTXT
 40
3.0
  9
$DIMCEN
 40
-2.0
  9
$DIMTSZ
 40
0.0
  9
$DIMTOL
 70
     0
  9
$DIMLIM
 70
     0
  9
$DIMTIH
 70
     0
  9
$DIMTOH
 70
     0
  9
$DIMSE1
 70
     0
  9
$DIMSE2
 70
     0
  9
$DIMTAD
 70
     1
  9
$DIMZIN
 70
     8
  9
$DIMBLK
  1

  9
$DIMASO
 70
     1
  9
$DIMSHO
 70
     1
  9
$DIMPOST
  1

  9
$DIMAPOST
  1

  9
$DIMALT
 70
     0
  9
$DIMALTD
 70
     2
  9
$DIMALTF
 40
25.4
  9
$DIMLFAC
 40
1.0
  9
$DIMTOFL
 70
     1
  9
$DIMTVP
 40
0.0
  9
$DIMTIX
 70
     0
  9
$DIMSOXD
 70
     0
  9
$DIMSAH
 70
     0
  9
$DIMBLK1
  1

  9
$DIMBLK2
  1

  9
$DIMSTYLE
  2
STANDAARD
  9
$DIMCLRD
 70
   256
  9
$DIMCLRE
 70
   256
  9
$DIMCLRT
 70
   256
  9
$DIMTFAC
 40
0.75
  9
$DIMGAP
 40
1.5
  9
$DIMJUST
 70
     0
  9
$DIMSD1
 70
     0
  9
$DIMSD2
 70
     0
  9
$DIMTOLJ
 70
     1
  9
$DIMTZIN
 70
     8
  9
$DIMALTZ
 70
     8
  9
$DIMALTTZ
 70
     8
  9
$DIMFIT
 70
     3
  9
$DIMUPT
 70
     0
  9
$DIMUNIT
 70
     2
  9
$DIMDEC
 70
     0
  9
$DIMTDEC
 70
     1
  9
$DIMALTU
 70
     2
  9
$DIMALTTD
 70
     2
  9
$DIMTXSTY
  7
ROMANS
  9
$DIMAUNIT
 70
     0
  9
$LUNITS
 70
     2
  9
$LUPREC
 70
     4
  9
$SKETCHINC
 40
0.1
  9
$FILLETRAD
 40
6.0
  9
$AUNITS
 70
     0
  9
$AUPREC
 70
     4
  9
$MENU
  1
wtb2
  9
$ELEVATION
 40
0.0
  9
$PELEVATION
 40
0.0
  9
$THICKNESS
 40
0.0
  9
$LIMCHECK
 70
     0
  9
$BLIPMODE
 70
     0
  9
$CHAMFERA
 40
0.0
  9
$CHAMFERB
 40
0.0
  9
$CHAMFERC
 40
0.0
  9
$CHAMFERD
 40
0.0
  9
$SKPOLY
 70
     0
  9
$TDCREATE
 40
2451578.409790035
  9
$TDUPDATE
 40
2452584.387690694
  9
$TDINDWG
 40
3.1679728819
  9
$TDUSRTIMER
 40
3.1679728819
  9
$USRTIMER
 70
     1
  9
$ANGBASE
 50
0.0
  9
$ANGDIR
 70
     0
  9
$PDMODE
 70
     3
  9
$PDSIZE
 40
0.0
  9
$PLINEWID
 40
0.0
  9
$COORDS
 70
     2
  9
$SPLFRAME
 70
     0
  9
$SPLINETYPE
 70
     6
  9
$SPLINESEGS
 70
     8
  9
$ATTDIA
 70
     0
  9
$ATTREQ
 70
     1
  9
$HANDLING
 70
     1
  9
$HANDSEED
  5
1F4
  9
$SURFTAB1
 70
     6
  9
$SURFTAB2
 70
     6
  9
$SURFTYPE
 70
     6
  9
$SURFU
 70
     6
  9
$SURFV
 70
     6
  9
$UCSNAME
  2

  9
$UCSORG
 10
0.0
 20
0.0
 30
0.0
  9
$UCSXDIR
 10
1.0
 20
0.0
 30
0.0
  9
$UCSYDIR
 10
0.0
 20
1.0
 30
0.0
  9
$PUCSNAME
  2

  9
$PUCSORG
 10
0.0
 20
0.0
 30
0.0
  9
$PUCSXDIR
 10
1.0
 20
0.0
 30
0.0
  9
$PUCSYDIR
 10
0.0
 20
1.0
 30
0.0
  9
$USERI1
 70
     0
  9
$USERI2
 70
     0
  9
$USERI3
 70
     0
  9
$USERI4
 70
     0
  9
$USERI5
 70
     0
  9
$USERR1
 40
0.0
  9
$USERR2
 40
0.0
  9
$USERR3
 40
0.0
  9
$USERR4
 40
0.0
  9
$USERR5
 40
0.0
  9
$WORLDVIEW
 70
     1
  9
$SHADEDGE
 70
     3
  9
$SHADEDIF
 70
    70
  9
$TILEMODE
 70
     1
  9
$MAXACTVP
 70
    16
  9
$PINSBASE
 10
0.0
 20
0.0
 30
0.0
  9
$PLIMCHECK
 70
     0
  9
$PEXTMIN
 10
1.000000E+20
 20
1.000000E+20
 30
1.000000E+20
  9
$PEXTMAX
 10
-1.000000E+20
 20
-1.000000E+20
 30
-1.000000E+20
  9
$PLIMMIN
 10
0.0
 20
0.0
  9
$PLIMMAX
 10
12.0
 20
9.0
  9
$UNITMODE
 70
     0
  9
$VISRETAIN
 70
     0
  9
$PLINEGEN
 70
     0
  9
$PSLTSCALE
 70
     0
  9
$TREEDEPTH
 70
  3020
  9
$PICKSTYLE
 70
     1
  9
$CMLSTYLE
  2
STANDARD
  9
$CMLJUST
 70
     0
  9
$CMLSCALE
 40
1.0
  9
$PROXYGRAPHICS
 70
     1
  9
$MEASUREMENT
 70
     0
  0
ENDSEC
  0
SECTION
  2
CLASSES
  0
CLASS
  1
LWPOLYLINE
  2
AcDbPolyline
  3
"AutoCAD"
 90
        0
280
     0
281
     1
  0
CLASS
  1
HATCH
  2
AcDbHatch
  3
"ACAD_SEDONA"
 90
        0
280
     0
281
     1
  0
CLASS
  1
ACMDATUMID
  2
AcmDatumId
  3
AutoCadMServices
 90
      255
280
     1
281
     1
  0
CLASS
  1
ACMFCFRAME
  2
AcmFCF
  3
AutoCadMServices
 90
      255
280
     1
281
     1
  0
CLASS
  1
AMLOADER
  2
AMLoader
  3
AMAcad
 90
        0
280
     0
281
     0
  0
ENDSEC
  0
SECTION
  2
TABLES
  0
TABLE
  2
VPORT
  5
12
100
AcDbSymbolTable
 70
     2
  0
VPORT
  5
1F3
100
AcDbSymbolTableRecord
100
AcDbViewportTableRecord
  2
*ACTIVE
 70
     0
 10
0.0
 20
0.0
 11
1.0
 21
1.0
 12
407.875721
 22
1453.113836
 13
0.0
 23
0.0
 14
20.0
 24
20.0
 15
40.0
 25
40.0
 16
0.0
 26
0.0
 36
1.0
 17
0.0
 27
0.0
 37
0.0
 40
416.675053
 41
1.650376
 42
50.0
 43
0.0
 44
0.0
 50
0.0
 51
0.0
 71
     0
 72
 20000
 73
     1
 74
     0
 75
     0
 76
     0
 77
     0
 78
     1
  0
ENDTAB
  0
TABLE
  2
LTYPE
  5
D
100
AcDbSymbolTable
 70
     1
  0
LTYPE
  5
E
100
AcDbSymbolTableRecord
100
AcDbLinetypeTableRecord
  2
BYBLOCK
 70
     0
  3

 72
    65
 73
     0
 40
0.0
  0
LTYPE
  5
F
100
AcDbSymbolTableRecord
100
AcDbLinetypeTableRecord
  2
BYLAYER
 70
     0
  3

 72
    65
 73
     0
 40
0.0
  0
LTYPE
  5
5
100
AcDbSymbolTableRecord
100
AcDbLinetypeTableRecord
  2
CONTINUOUS
 70
     0
  3
Solid line
 72
    65
 73
     0
 40
0.0
  0
ENDTAB
  0
TABLE
  2
LAYER
  5
A
100
AcDbSymbolTable
 70
     4
  0
LAYER
  5
4
100
AcDbSymbolTableRecord
100
AcDbLayerTableRecord
  2
0
 70
     0
 62
     8
  6
CONTINUOUS
  0
LAYER
  5
20
100
AcDbSymbolTableRecord
100
AcDbLayerTableRecord
  2
025-DWG
 70
     0
 62
     7
  6
CONTINUOUS
  0
LAYER
  5
1B
100
AcDbSymbolTableRecord
100
AcDbLayerTableRecord
  2
035-DWG
 70
     0
 62
     2
  6
CONTINUOUS
  0
LAYER
  5
3B
100
AcDbSymbolTableRecord
100
AcDbLayerTableRecord
  2
DIM-LINE
 70
     0
 62
     7
  6
CONTINUOUS
  0
ENDTAB
  0
TABLE
  2
STYLE
  5
B
100
AcDbSymbolTable
 70
     2
  0
STYLE
  5
C
100
AcDbSymbolTableRecord
100
AcDbTextStyleTableRecord
  2
STANDARD
 70
     0
 40
0.0
 41
1.0
 50
0.0
 71
     0
 42
15.0
  3
txt
  4

  0
STYLE
  5
1C
100
AcDbSymbolTableRecord
100
AcDbTextStyleTableRecord
  2
ROMANS
 70
     0
 40
0.0
 41
1.0
 50
0.0
 71
     0
 42
3.5
  3
romans
  4

  0
ENDTAB
  0
TABLE
  2
VIEW
  5
10
100
AcDbSymbolTable
 70
     0
  0
ENDTAB
  0
TABLE
  2
UCS
  5
11
100
AcDbSymbolTable
 70
     0
  0
ENDTAB
  0
TABLE
  2
APPID
  5
14
100
AcDbSymbolTable
 70
     1
  0
APPID
  5
15
100
AcDbSymbolTableRecord
100
AcDbRegAppTableRecord
  2
ACAD
 70
     0
  0
ENDTAB
  0
TABLE
  2
DIMSTYLE
  5
16
100
AcDbSymbolTable
 70
     1
  0
DIMSTYLE
105
1E
100
AcDbSymbolTableRecord
100
AcDbDimStyleTableRecord
  2
STANDAARD
 70
     0
  3

  4

  5

  6

  7

 40
8.0
 41
2.5
 42
1.5
 43
5.0
 44
1.0
 45
0.0
 46
0.0
 47
0.0
 48
0.0
140
3.0
141
-2.0
142
0.0
143
25.4
144
1.0
145
0.0
146
0.75
147
1.5
 71
     0
 72
     0
 73
     0
 74
     0
 75
     0
 76
     0
 77
     1
 78
     8
170
     0
171
     2
172
     1
173
     0
174
     0
175
     0
176
   256
177
   256
178
   256
270
     2
271
     0
272
     1
273
     2
274
     2
340
1C
275
     0
280
     0
281
     0
282
     0
283
     1
284
     8
285
     8
286
     8
287
     3
288
     0
  0
ENDTAB
  0
TABLE
  2
BLOCK_RECORD
  5
1
100
AcDbSymbolTable
 70
     0
  0
BLOCK_RECORD
  5
2
100
AcDbSymbolTableRecord
100
AcDbBlockTableRecord
  2
*MODEL_SPACE
  0
BLOCK_RECORD
  5
7
100
AcDbSymbolTableRecord
100
AcDbBlockTableRecord
  2
*PAPER_SPACE
  0
ENDTAB
  0
ENDSEC
  0
SECTION
  2
BLOCKS
  0
BLOCK
  5
3
100
AcDbEntity
  8
0
100
AcDbBlockBegin
  2
*MODEL_SPACE
 70
     0
 10
0.0
 20
0.0
 30
0.0
  3
*MODEL_SPACE
  1

  0
ENDBLK
  5
6
100
AcDbEntity
  8
0
100
AcDbBlockEnd
  0
BLOCK
  5
8
100
AcDbEntity
 67
     1
  8
0
100
AcDbBlockBegin
  2
*PAPER_SPACE
 70
     0
 10
0.0
 20
0.0
 30
0.0
  3
*PAPER_SPACE
  1

  0
ENDBLK
  5
9
100
AcDbEntity
 67
     1
  8
0
100
AcDbBlockEnd
  0
ENDSEC
  0
SECTION
  2
ENTITIES
  0
LWPOLYLINE
  5
1F
100
AcDbEntity
  8
025-DWG
  6
CONTINUOUS
100
AcDbPolyline
 90
        3
 70
   128
 43
0.0
 10
585.39917
 20
1556.692897
 10
557.124515
 20
1562.727651
 10
543.996542
 20
1565.529605
  0
LINE
  5
21
100
AcDbEntity
  8
035-DWG
  6
CONTINUOUS
100
AcDbLine
 10
543.659115
 20
1566.399332
 30
0.0
 11
585.692363
 21
1557.46557
 31
0.0
  0
LWPOLYLINE
  5
22
100
AcDbEntity
  8
025-DWG
  6
CONTINUOUS
100
AcDbPolyline
 90
        3
 70
   128
 43
0.0
 10
230.40083
 20
1556.692897
 10
258.675485
 20
1562.727651
 10
271.803458
 20
1565.529605
  0
LINE
  5
23
100
AcDbEntity
  8
035-DWG
  6
CONTINUOUS
100
AcDbLine
 10
272.140885
 20
1566.399332
 30
0.0
 11
230.107637
 21
1557.46557
 31
0.0
  0
ARC
  5
24
100
AcDbEntity
  8
035-DWG
100
AcDbCircle
 10
407.9
 20
1513.228827
 30
0.0
 40
136.0
100
AcDbArc
 50
9.684632
 51
170.315368
  0
ARC
  5
25
100
AcDbEntity
  8
025-DWG
100
AcDbCircle
 10
407.9
 20
1513.228827
 30
0.0
 40
118.0
100
AcDbArc
 50
13.091279
 51
166.908721
  0
ARC
  5
26
100
AcDbEntity
  8
025-DWG
100
AcDbCircle
 10
407.9
 20
1513.228827
 30
0.0
 40
122.0
100
AcDbArc
 50
12.239309
 51
167.760691
  0
CIRCLE
  5
27
100
AcDbEntity
  8
035-DWG
100
AcDbCircle
 10
407.9
 20
1513.228827
 30
0.0
 40
99.05
  0
CIRCLE
  5
28
100
AcDbEntity
  8
035-DWG
100
AcDbCircle
 10
407.9
 20
1513.228827
 30
0.0
 40
145.8
  0
CIRCLE
  5
29
100
AcDbEntity
  8
025-DWG
100
AcDbCircle
 10
407.9
 20
1513.228827
 30
0.0
 40
141.8
  0
CIRCLE
  5
2A
100
AcDbEntity
  8
025-DWG
100
AcDbCircle
 10
407.9
 20
1513.228827
 30
0.0
 40
95.05
  0
ARC
  5
2B
100
AcDbEntity
  8
035-DWG
100
AcDbCircle
 10
407.9
 20
1513.228827
 30
0.0
 40
136.0
100
AcDbArc
 50
189.684632
 51
350.315368
  0
ARC
  5
2C
100
AcDbEntity
  8
025-DWG
100
AcDbCircle
 10
407.9
 20
1513.228827
 30
0.0
 40
118.0
100
AcDbArc
 50
193.091279
 51
346.908721
  0
ARC
  5
2D
100
AcDbEntity
  8
025-DWG
100
AcDbCircle
 10
407.9
 20
1513.228827
 30
0.0
 40
122.0
100
AcDbArc
 50
192.239309
 51
347.760691
  0
CIRCLE
  5
2E
100
AcDbEntity
  8
035-DWG
100
AcDbCircle
 10
407.9
 20
1513.228827
 30
0.0
 40
30.0
  0
CIRCLE
  5
2F
100
AcDbEntity
  8
035-DWG
100
AcDbCircle
 10
407.9
 20
1513.228827
 30
0.0
 40
33.5
  0
LWPOLYLINE
  5
30
100
AcDbEntity
  8
035-DWG
100
AcDbPolyline
 90
        6
 70
     0
 43
0.0
 10
424.213679
 20
1280.240107
 10
423.510587
 20
1280.686302
 42
-0.395928
 10
423.442491
 20
1280.951518
 10
424.349275
 20
1282.600951
 42
-0.395928
 10
424.609692
 20
1282.685565
 10
425.363162
 20
1282.331009
  0
LWPOLYLINE
  5
31
100
AcDbEntity
  8
035-DWG
100
AcDbPolyline
 90
        4
 70
     0
 43
0.0
 10
392.049692
 20
1280.445106
 42
-0.417384
 10
391.772513
 20
1280.508638
 42
-0.026016
 10
390.835645
 20
1282.212793
 42
-0.417384
 10
390.930524
 20
1282.480866
  0
LINE
  5
32
100
AcDbEntity
  8
025-DWG
100
AcDbLine
 10
397.7
 20
1285.354794
 30
0.0
 11
397.7
 21
1278.817781
 31
0.0
  0
LINE
  5
33
100
AcDbEntity
  8
035-DWG
100
AcDbLine
 10
397.4
 20
1285.354794
 30
0.0
 11
397.4
 21
1270.500713
 31
0.0
  0
LINE
  5
34
100
AcDbEntity
  8
025-DWG
100
AcDbLine
 10
418.1
 20
1285.354794
 30
0.0
 11
418.1
 21
1278.817781
 31
0.0
  0
LINE
  5
35
100
AcDbEntity
  8
035-DWG
100
AcDbLine
 10
418.4
 20
1285.354794
 30
0.0
 11
418.4
 21
1270.500713
 31
0.0
  0
ARC
  5
36
100
AcDbEntity
  8
035-DWG
100
AcDbCircle
 10
407.9
 20
1290.54855
 30
0.0
 40
19.3
100
AcDbArc
 50
302.959184
 51
237.040816
  0
ARC
  5
37
100
AcDbEntity
  8
025-DWG
100
AcDbCircle
 10
407.9
 20
1273.055098
 30
0.0
 40
24.7
100
AcDbArc
 50
247.485165
 51
270.0
  0
ARC
  5
38
100
AcDbEntity
  8
035-DWG
100
AcDbCircle
 10
407.9
 20
1273.055098
 30
0.0
 40
25.0
100
AcDbArc
 50
238.243136
 51
270.0
  0
ARC
  5
39
100
AcDbEntity
  8
035-DWG
100
AcDbCircle
 10
407.9
 20
1273.055098
 30
0.0
 40
22.0
100
AcDbArc
 50
234.656342
 51
270.0
  0
ARC
  5
3A
100
AcDbEntity
  8
DIM-LINE
100
AcDbCircle
 10
407.9
 20
1273.314102
 30
0.0
 40
18.0
100
AcDbArc
 50
228.276867
 51
285.016781
  0
LINE
  5
3C
100
AcDbEntity
  8
025-DWG
100
AcDbLine
 10
394.094658
 20
1258.148328
 30
0.0
 11
395.080193
 21
1261.258585
 31
0.0
  0
ARC
  5
3D
100
AcDbEntity
  8
025-DWG
100
AcDbCircle
 10
396.752402
 20
1257.66063
 30
0.0
 40
2.7
100
AcDbArc
 50
168.885383
 51
238.243136
  0
ARC
  5
3E
100
AcDbEntity
  8
035-DWG
100
AcDbCircle
 10
396.752402
 20
1257.66063
 30
0.0
 40
3.0
100
AcDbArc
 50
168.885383
 51
238.243136
  0
LINE
  5
3F
100
AcDbEntity
  8
025-DWG
100
AcDbLine
 10
393.439688
 20
1260.690189
 30
0.0
 11
392.830828
 21
1259.506036
 31
0.0
  0
ARC
  5
40
100
AcDbEntity
  8
025-DWG
100
AcDbCircle
 10
407.9
 20
1273.055098
 30
0.0
 40
24.7
100
AcDbArc
 50
238.243136
 51
238.864823
  0
ARC
  5
41
100
AcDbEntity
  8
035-DWG
100
AcDbCircle
 10
397.9
 20
1256.899603
 30
0.0
 40
6.0
100
AcDbArc
 50
152.788983
 51
238.243136
  0
ARC
  5
42
100
AcDbEntity
  8
025-DWG
100
AcDbCircle
 10
397.9
 20
1256.899603
 30
0.0
 40
5.7
100
AcDbArc
 50
152.788983
 51
238.243136
  0
LWPOLYLINE
  5
43
100
AcDbEntity
  8
035-DWG
100
AcDbPolyline
 90
        6
 70
     0
 43
0.0
 10
391.626615
 20
1280.176613
 10
392.329707
 20
1280.622809
 42
-0.395928
 10
392.598676
 20
1280.5715
 10
393.705037
 20
1279.048724
 42
-0.395928
 10
393.670719
 20
1278.777064
 10
393.029094
 20
1278.246267
  0
LWPOLYLINE
  5
44
100
AcDbEntity
  8
035-DWG
100
AcDbPolyline
 90
        4
 70
     0
 43
0.0
 10
395.060283
 20
1276.820713
 42
-0.417384
 10
394.776012
 20
1276.813317
 42
-0.026016
 10
393.444772
 20
1278.230944
 42
-0.417384
 10
393.470002
 20
1278.51419
  0
LINE
  5
45
100
AcDbEntity
  8
025-DWG
100
AcDbLine
 10
397.7
 20
1272.897422
 30
0.0
 11
397.7
 21
1270.500713
 31
0.0
  0
LINE
  5
46
100
AcDbEntity
  8
025-DWG
100
AcDbLine
 10
396.070807
 20
1264.384873
 30
0.0
 11
397.405711
 21
1268.597707
 31
0.0
  0
ARC
  5
47
100
AcDbEntity
  8
025-DWG
100
AcDbCircle
 10
391.4
 20
1270.500713
 30
0.0
 40
6.3
100
AcDbArc
 50
342.41836
 51
360.0
  0
ARC
  5
48
100
AcDbEntity
  8
035-DWG
100
AcDbCircle
 10
391.4
 20
1270.500713
 30
0.0
 40
6.0
100
AcDbArc
 50
332.788983
 51
360.0
  0
LWPOLYLINE
  5
49
100
AcDbEntity
  8
035-DWG
100
AcDbPolyline
 90
        3
 70
     0
 43
0.0
 10
397.4
 20
1274.721402
 42
-0.007108
 10
396.962173
 20
1275.023055
 42
-0.417384
 10
396.916171
 20
1275.303677
  0
LINE
  5
4A
100
AcDbEntity
  8
025-DWG
100
AcDbLine
 10
396.425326
 20
1266.496866
 30
0.0
 11
394.541666
 21
1262.833394
 31
0.0
  0
ARC
  5
4B
100
AcDbEntity
  8
025-DWG
100
AcDbCircle
 10
407.9
 20
1273.055098
 30
0.0
 40
21.7
100
AcDbArc
 50
234.656342
 51
242.76851
  0
LINE
  5
4C
100
AcDbEntity
  8
035-DWG
100
AcDbLine
 10
393.808672
 20
1258.238947
 30
0.0
 11
397.119725
 21
1268.688326
 31
0.0
  0
LINE
  5
4D
100
AcDbEntity
  8
035-DWG
100
AcDbLine
 10
396.735971
 20
1267.757099
 30
0.0
 11
392.564029
 21
1259.643217
 31
0.0
  0
LWPOLYLINE
  5
4E
100
AcDbEntity
  8
035-DWG
100
AcDbPolyline
 90
        6
 70
     0
 43
0.0
 10
394.717269
 20
1276.455441
 10
395.287308
 20
1277.06247
 42
-0.395928
 10
395.560586
 20
1277.079663
 10
397.010888
 20
1275.879868
 42
-0.395928
 10
397.045207
 20
1275.608209
 10
396.555745
 20
1274.934522
  0
ARC
  5
4F
100
AcDbEntity
  8
035-DWG
100
AcDbCircle
 10
407.9
 20
1273.055098
 30
0.0
 40
25.0
100
AcDbArc
 50
270.0
 51
301.756864
  0
ARC
  5
50
100
AcDbEntity
  8
025-DWG
100
AcDbCircle
 10
407.9
 20
1273.055098
 30
0.0
 40
24.7
100
AcDbArc
 50
270.0
 51
287.254814
  0
ARC
  5
51
100
AcDbEntity
  8
025-DWG
100
AcDbCircle
 10
407.9
 20
1273.055098
 30
0.0
 40
21.7
100
AcDbArc
 50
255.565184
 51
270.0
  0
ARC
  5
52
100
AcDbEntity
  8
DIM-LINE
100
AcDbCircle
 10
407.9
 20
1281.461635
 30
0.0
 40
18.0
100
AcDbArc
 50
240.491879
 51
249.450998
  0
LINE
  5
53
100
AcDbEntity
  8
025-DWG
100
AcDbLine
 10
418.1
 20
1272.897422
 30
0.0
 11
418.1
 21
1270.500713
 31
0.0
  0
LINE
  5
54
100
AcDbEntity
  8
025-DWG
100
AcDbLine
 10
419.729193
 20
1264.384873
 30
0.0
 11
418.394289
 21
1268.597707
 31
0.0
  0
LINE
  5
55
100
AcDbEntity
  8
025-DWG
100
AcDbLine
 10
419.374674
 20
1266.496866
 30
0.0
 11
421.485464
 21
1262.391655
 31
0.0
  0
ARC
  5
56
100
AcDbEntity
  8
035-DWG
100
AcDbCircle
 10
424.4
 20
1270.500713
 30
0.0
 40
6.0
100
AcDbArc
 50
180.0
 51
207.211017
  0
ARC
  5
57
100
AcDbEntity
  8
025-DWG
100
AcDbCircle
 10
424.4
 20
1270.500713
 30
0.0
 40
6.3
100
AcDbArc
 50
180.0
 51
197.58164
  0
ARC
  5
58
100
AcDbEntity
  8
035-DWG
100
AcDbCircle
 10
419.047598
 20
1257.66063
 30
0.0
 40
3.0
100
AcDbArc
 50
301.756864
 51
11.114617
  0
LINE
  5
59
100
AcDbEntity
  8
025-DWG
100
AcDbLine
 10
421.705342
 20
1258.148328
 30
0.0
 11
420.719807
 21
1261.258585
 31
0.0
  0
ARC
  5
5A
100
AcDbEntity
  8
025-DWG
100
AcDbCircle
 10
419.047598
 20
1257.66063
 30
0.0
 40
2.7
100
AcDbArc
 50
301.756864
 51
11.114617
  0
ARC
  5
5B
100
AcDbEntity
  8
025-DWG
100
AcDbCircle
 10
407.9
 20
1273.055098
 30
0.0
 40
21.7
100
AcDbArc
 50
297.23149
 51
305.343658
  0
LINE
  5
5C
100
AcDbEntity
  8
025-DWG
100
AcDbLine
 10
422.514312
 20
1260.39068
 30
0.0
 11
422.969172
 21
1259.506036
 31
0.0
  0
ARC
  5
5D
100
AcDbEntity
  8
DIM-LINE
100
AcDbCircle
 10
407.9
 20
1273.314102
 30
0.0
 40
18.0
100
AcDbArc
 50
300.00384
 51
311.723133
  0
ARC
  5
5E
100
AcDbEntity
  8
025-DWG
100
AcDbCircle
 10
407.9
 20
1273.055098
 30
0.0
 40
24.7
100
AcDbArc
 50
299.049949
 51
301.756864
  0
LINE
  5
5F
100
AcDbEntity
  8
035-DWG
100
AcDbLine
 10
421.991328
 20
1258.238947
 30
0.0
 11
418.680275
 21
1268.688326
 31
0.0
  0
LWPOLYLINE
  5
60
100
AcDbEntity
  8
035-DWG
100
AcDbPolyline
 90
        4
 70
     0
 43
0.0
 10
418.4
 20
1275.605051
 10
418.485824
 20
1275.659517
 42
-0.395928
 10
418.754793
 20
1275.608209
 10
419.244255
 20
1274.934522
  0
LWPOLYLINE
  5
61
100
AcDbEntity
  8
035-DWG
100
AcDbPolyline
 90
        6
 70
     0
 43
0.0
 10
421.137549
 20
1276.506918
 10
420.567511
 20
1277.113947
 42
-0.395928
 10
420.567511
 20
1277.387766
 10
421.856003
 20
1278.759871
 42
-0.395928
 10
422.129281
 20
1278.777064
 10
422.770906
 20
1278.246267
  0
LWPOLYLINE
  5
62
100
AcDbEntity
  8
035-DWG
100
AcDbPolyline
 90
        4
 70
     0
 43
0.0
 10
420.794535
 20
1276.872191
 42
-0.417384
 10
420.784067
 20
1276.588016
 42
-0.026016
 10
419.285648
 20
1275.348417
 42
-0.417384
 10
419.004546
 20
1275.391383
  0
ARC
  5
63
100
AcDbEntity
  8
DIM-LINE
100
AcDbCircle
 10
407.9
 20
1281.461635
 30
0.0
 40
18.0
100
AcDbArc
 50
261.454752
 51
299.508121
  0
ARC
  5
64
100
AcDbEntity
  8
025-DWG
100
AcDbCircle
 10
407.9
 20
1273.055098
 30
0.0
 40
21.7
100
AcDbArc
 50
270.0
 51
284.434816
  0
ARC
  5
65
100
AcDbEntity
  8
035-DWG
100
AcDbCircle
 10
407.9
 20
1273.055098
 30
0.0
 40
22.0
100
AcDbArc
 50
270.0
 51
305.343658
  0
LINE
  5
66
100
AcDbEntity
  8
035-DWG
100
AcDbLine
 10
419.064029
 20
1267.757099
 30
0.0
 11
423.235971
 21
1259.643217
 31
0.0
  0
ARC
  5
67
100
AcDbEntity
  8
035-DWG
100
AcDbCircle
 10
417.9
 20
1256.899603
 30
0.0
 40
6.0
100
AcDbArc
 50
301.756864
 51
27.211017
  0
ARC
  5
68
100
AcDbEntity
  8
025-DWG
100
AcDbCircle
 10
417.9
 20
1256.899603
 30
0.0
 40
5.7
100
AcDbArc
 50
301.756864
 51
27.211017
  0
LWPOLYLINE
  5
69
100
AcDbEntity
  8
035-DWG
100
AcDbPolyline
 90
        4
 70
     0
 43
0.0
 10
423.790602
 20
1280.508599
 42
-0.417384
 10
423.851134
 20
1280.230749
 42
-0.026016
 10
422.708067
 20
1278.657452
 42
-0.417384
 10
422.42511
 20
1278.629161
  0
LINE
  5
6A
100
AcDbEntity
  8
035-DWG
100
AcDbLine
 10
392.874074
 20
1302.661004
 30
0.0
 11
385.323634
 21
1369.187348
 31
0.0
  0
LINE
  5
6B
100
AcDbEntity
  8
035-DWG
100
AcDbLine
 10
430.476366
 20
1369.187348
 30
0.0
 11
422.925926
 21
1302.661004
 31
0.0
  0
POLYLINE
  5
6C
100
AcDbEntity
  8
DIM-LINE
100
AcDb2dPolyline
 66
     1
 10
0.0
 20
0.0
 30
0.0
  0
VERTEX
  5
6D
100
AcDbEntity
  8
DIM-LINE
100
AcDbVertex
100
AcDb2dVertex
 10
399.878931
 20
1295.746733
 30
0.0
 42
0.059449
  0
VERTEX
  5
6E
100
AcDbEntity
  8
DIM-LINE
100
AcDbVertex
100
AcDb2dVertex
 10
398.991776
 20
1296.496616
 30
0.0
 42
0.05982
  0
VERTEX
  5
6F
100
AcDbEntity
  8
DIM-LINE
100
AcDbVertex
100
AcDb2dVertex
 10
396.561078
 20
1297.711468
 30
0.0
  0
SEQEND
  5
70
100
AcDbEntity
  8
DIM-LINE
  0
LWPOLYLINE
  5
71
100
AcDbEntity
  8
035-DWG
100
AcDbPolyline
 90
        4
 70
     0
 43
0.0
 10
396.821244
 20
1305.73318
 42
-0.417384
 10
396.867247
 20
1306.013802
 42
-0.026016
 10
398.509213
 20
1307.055825
 42
-0.417384
 10
398.782714
 20
1306.977966
  0
LWPOLYLINE
  5
72
100
AcDbEntity
  8
035-DWG
100
AcDbPolyline
 90
        6
 70
     0
 43
0.0
 10
400.761107
 20
1308.477195
 10
401.067653
 20
1307.702949
 42
-0.395928
 10
400.966854
 20
1307.448358
 10
399.263739
 20
1306.646933
 42
-0.395928
 10
399.003321
 20
1306.731548
 10
398.602154
 20
1307.461269
  0
POLYLINE
  5
73
100
AcDbEntity
  8
035-DWG
100
AcDb2dPolyline
 66
     1
 10
0.0
 20
0.0
 30
0.0
  0
VERTEX
  5
74
100
AcDbEntity
  8
035-DWG
100
AcDbVertex
100
AcDb2dVertex
 10
399.076334
 20
1302.04855
 30
0.0
 42
0.106423
  0
VERTEX
  5
75
100
AcDbEntity
  8
035-DWG
100
AcDbVertex
100
AcDb2dVertex
 10
395.992474
 20
1297.8731
 30
0.0
 42
0.106423
  0
VERTEX
  5
76
100
AcDbEntity
  8
035-DWG
100
AcDbVertex
100
AcDb2dVertex
 10
394.9
 20
1292.79855
 30
0.0
 42
0.106423
  0
VERTEX
  5
77
100
AcDbEntity
  8
035-DWG
100
AcDbVertex
100
AcDb2dVertex
 10
395.992474
 20
1287.723999
 30
0.0
 42
0.056042
  0
VERTEX
  5
78
100
AcDbEntity
  8
035-DWG
100
AcDbVertex
100
AcDb2dVertex
 10
397.4
 20
1285.354794
 30
0.0
  0
SEQEND
  5
79
100
AcDbEntity
  8
035-DWG
  0
LWPOLYLINE
  5
7A
100
AcDbEntity
  8
035-DWG
100
AcDbPolyline
 90
        4
 70
     0
 43
0.0
 10
389.42934
 20
1294.033738
 42
-0.417384
 10
389.270775
 20
1294.269794
 42
-0.026016
 10
389.754403
 20
1296.153399
 42
-0.417384
 10
390.007075
 20
1296.283867
  0
LWPOLYLINE
  5
7B
100
AcDbEntity
  8
035-DWG
100
AcDbPolyline
 90
        4
 70
     0
 43
0.0
 10
389.142898
 20
1289.330778
 42
-0.417384
 10
388.930611
 20
1289.519984
 42
-0.026016
 10
388.930611
 20
1291.464686
 42
-0.417384
 10
389.142898
 20
1291.653892
  0
LWPOLYLINE
  5
7C
100
AcDbEntity
  8
035-DWG
100
AcDbPolyline
 90
        6
 70
     0
 43
0.0
 10
388.937134
 20
1294.127632
 10
389.755107
 20
1293.971595
 42
-0.395928
 10
389.916054
 20
1293.750071
 10
389.680145
 20
1291.882658
 42
-0.395928
 10
389.469164
 20
1291.70812
 10
388.638084
 20
1291.760407
  0
LWPOLYLINE
  5
7D
100
AcDbEntity
  8
035-DWG
100
AcDbPolyline
 90
        6
 70
     0
 43
0.0
 10
390.422969
 20
1298.731061
 10
391.176439
 20
1298.376505
 42
-0.395928
 10
391.277239
 20
1298.121915
 10
390.584335
 20
1296.371838
 42
-0.395928
 10
390.336576
 20
1296.255252
 10
389.544609
 20
1296.512578
  0
LWPOLYLINE
  5
7E
100
AcDbEntity
  8
035-DWG
100
AcDbPolyline
 90
        4
 70
     0
 43
0.0
 10
393.39304
 20
1302.500952
 42
-0.417384
 10
393.367809
 20
1302.784198
 42
-0.026016
 10
394.699049
 20
1304.201825
 42
-0.417384
 10
394.98332
 20
1304.194429
  0
LWPOLYLINE
  5
7F
100
AcDbEntity
  8
035-DWG
100
AcDbPolyline
 90
        6
 70
     0
 43
0.0
 10
393.00695
 20
1302.820353
 10
393.648574
 20
1302.289556
 42
-0.395928
 10
393.682893
 20
1302.017896
 10
392.576531
 20
1300.49512
 42
-0.395928
 10
392.307562
 20
1300.443811
 10
391.604471
 20
1300.890007
  0
LWPOLYLINE
  5
80
100
AcDbEntity
  8
035-DWG
100
AcDbPolyline
 90
        4
 70
     0
 43
0.0
 10
390.876361
 20
1298.517711
 42
-0.417384
 10
390.781482
 20
1298.785784
 42
-0.026016
 10
391.71835
 20
1300.489939
 42
-0.417384
 10
391.995529
 20
1300.553471
  0
POLYLINE
  5
81
100
AcDbEntity
  8
025-DWG
100
AcDb2dPolyline
 66
     1
 10
0.0
 20
0.0
 30
0.0
  0
VERTEX
  5
82
100
AcDbEntity
  8
025-DWG
100
AcDbVertex
100
AcDb2dVertex
 10
396.539699
 20
1290.962685
 30
0.0
 42
0.015711
  0
VERTEX
  5
83
100
AcDbEntity
  8
025-DWG
100
AcDbVertex
100
AcDb2dVertex
 10
396.220106
 20
1291.523275
 30
0.0
 42
0.044824
  0
VERTEX
  5
84
100
AcDbEntity
  8
025-DWG
100
AcDbVertex
100
AcDb2dVertex
 10
395.123804
 20
1292.998329
 30
0.0
 42
0.044824
  0
SEQEND
  5
85
100
AcDbEntity
  8
025-DWG
  0
LWPOLYLINE
  5
86
100
AcDbEntity
  8
035-DWG
100
AcDbPolyline
 90
        6
 70
     0
 43
0.0
 10
396.526716
 20
1306.138563
 10
397.016178
 20
1305.464876
 42
-0.395928
 10
396.98186
 20
1305.193216
 10
395.531558
 20
1303.993422
 42
-0.395928
 10
395.258279
 20
1304.010615
 10
394.688241
 20
1304.617644
  0
LWPOLYLINE
  5
87
100
AcDbEntity
  8
035-DWG
100
AcDbPolyline
 90
        4
 70
     0
 43
0.0
 10
390.035035
 20
1284.704335
 42
-0.417384
 10
389.782363
 20
1284.834803
 42
-0.026016
 10
389.298735
 20
1286.718409
 42
-0.417384
 10
389.4573
 20
1286.954464
  0
LWPOLYLINE
  5
88
100
AcDbEntity
  8
035-DWG
100
AcDbPolyline
 90
        6
 70
     0
 43
0.0
 10
389.558478
 20
1284.549493
 10
390.350445
 20
1284.806818
 42
-0.395928
 10
390.598203
 20
1284.690232
 10
391.291108
 20
1282.940156
 42
-0.395928
 10
391.190308
 20
1282.685565
 10
390.436838
 20
1282.331009
  0
POLYLINE
  5
89
100
AcDbEntity
  8
035-DWG
100
AcDb2dPolyline
 66
     1
 10
0.0
 20
0.0
 30
0.0
 70
     2
  0
VERTEX
  5
8A
100
AcDbEntity
  8
035-DWG
100
AcDbVertex
100
AcDb2dVertex
 10
397.4
 20
1285.354794
 30
0.0
 42
0.056447
  0
VERTEX
  5
8B
100
AcDbEntity
  8
035-DWG
100
AcDbVertex
100
AcDb2dVertex
 10
397.328058
 20
1287.597777
 30
0.0
 42
0.056447
 70
     1
  0
VERTEX
  5
8C
100
AcDbEntity
  8
035-DWG
100
AcDbVertex
100
AcDb2dVertex
 10
396.756314
 20
1289.767859
 30
0.0
 42
0.044824
  0
VERTEX
  5
8D
100
AcDbEntity
  8
035-DWG
100
AcDbVertex
100
AcDb2dVertex
 10
395.96428
 20
1291.36658
 30
0.0
 42
0.044824
 70
     1
  0
VERTEX
  5
8E
100
AcDbEntity
  8
035-DWG
100
AcDbVertex
100
AcDb2dVertex
 10
394.9
 20
1292.79855
 30
0.0
  0
SEQEND
  5
8F
100
AcDbEntity
  8
035-DWG
  0
POLYLINE
  5
90
100
AcDbEntity
  8
025-DWG
100
AcDb2dPolyline
 66
     1
 10
0.0
 20
0.0
 30
0.0
  0
VERTEX
  5
91
100
AcDbEntity
  8
025-DWG
100
AcDbVertex
100
AcDb2dVertex
 10
397.699023
 20
1285.330607
 30
0.0
 42
0.056447
  0
VERTEX
  5
92
100
AcDbEntity
  8
025-DWG
100
AcDbVertex
100
AcDb2dVertex
 10
397.624916
 20
1287.641076
 30
0.0
 42
0.024827
  0
VERTEX
  5
93
100
AcDbEntity
  8
025-DWG
100
AcDbVertex
100
AcDb2dVertex
 10
397.427921
 20
1288.641201
 30
0.0
 42
0.044824
  0
SEQEND
  5
94
100
AcDbEntity
  8
025-DWG
  0
LWPOLYLINE
  5
95
100
AcDbEntity
  8
035-DWG
100
AcDbPolyline
 90
        6
 70
     0
 43
0.0
 10
388.642806
 20
1289.299315
 10
389.473886
 20
1289.351602
 42
-0.395928
 10
389.684867
 20
1289.177064
 10
389.920776
 20
1287.309651
 42
-0.395928
 10
389.759829
 20
1287.088127
 10
388.941856
 20
1286.93209
  0
LWPOLYLINE
  5
96
100
AcDbEntity
  8
035-DWG
100
AcDbPolyline
 90
        6
 70
     0
 43
0.0
 10
426.848775
 20
1294.2015
 10
426.030802
 20
1294.045463
 42
-0.395928
 10
425.799609
 20
1294.192182
 10
425.331511
 20
1296.015303
 42
-0.395928
 10
425.463424
 20
1296.255252
 10
426.255391
 20
1296.512578
  0
LWPOLYLINE
  5
97
100
AcDbEntity
  8
035-DWG
100
AcDbPolyline
 90
        6
 70
     0
 43
0.0
 10
427.161916
 20
1289.374367
 10
426.330836
 20
1289.426654
 42
-0.395928
 10
426.143394
 20
1289.626259
 10
426.143394
 20
1291.508514
 42
-0.395928
 10
426.330836
 20
1291.70812
 10
427.161916
 20
1291.760407
  0
LWPOLYLINE
  5
98
100
AcDbEntity
  8
035-DWG
100
AcDbPolyline
 90
        4
 70
     0
 43
0.0
 10
426.356569
 20
1294.107606
 42
-0.417384
 10
426.590897
 20
1293.946499
 42
-0.026016
 10
426.834632
 20
1292.017132
 42
-0.417384
 10
426.647732
 20
1291.802811
  0
LINE
  5
99
100
AcDbEntity
  8
025-DWG
100
AcDbLine
 10
423.450705
 20
1301.979453
 30
0.0
 11
423.450705
 21
1303.092589
 31
0.0
  0
LWPOLYLINE
  5
9A
100
AcDbEntity
  8
035-DWG
100
AcDbPolyline
 90
        6
 70
     0
 43
0.0
 10
425.345012
 20
1298.799104
 10
424.591542
 20
1298.444548
 42
-0.395928
 10
424.331125
 20
1298.529163
 10
423.424342
 20
1300.178595
 42
-0.395928
 10
423.492438
 20
1300.443811
 10
424.195529
 20
1300.890007
  0
LWPOLYLINE
  5
9B
100
AcDbEntity
  8
035-DWG
100
AcDbPolyline
 90
        4
 70
     0
 43
0.0
 10
424.891621
 20
1298.585754
 42
-0.417384
 10
425.158652
 20
1298.487983
 42
-0.026016
 10
425.874544
 20
1296.679845
 42
-0.417384
 10
425.746816
 20
1296.425778
  0
LWPOLYLINE
  5
9C
100
AcDbEntity
  8
035-DWG
100
AcDbPolyline
 90
        6
 70
     0
 43
0.0
 10
426.26476
 20
1284.621012
 10
425.472793
 20
1284.878338
 42
-0.395928
 10
425.34088
 20
1285.118287
 10
425.808978
 20
1286.941407
 42
-0.395928
 10
426.040171
 20
1287.088127
 10
426.858144
 20
1286.93209
  0
LWPOLYLINE
  5
9D
100
AcDbEntity
  8
035-DWG
100
AcDbPolyline
 90
        4
 70
     0
 43
0.0
 10
425.788204
 20
1284.775855
 42
-0.417384
 10
425.915932
 20
1284.521787
 42
-0.026016
 10
425.20004
 20
1282.71365
 42
-0.417384
 10
424.933008
 20
1282.615879
  0
LWPOLYLINE
  5
9E
100
AcDbEntity
  8
035-DWG
100
AcDbPolyline
 90
        4
 70
     0
 43
0.0
 10
426.661824
 20
1289.40583
 42
-0.417384
 10
426.848723
 20
1289.191509
 42
-0.026016
 10
426.604988
 20
1287.262142
 42
-0.417384
 10
426.37066
 20
1287.101035
  0
POLYLINE
  5
9F
100
AcDbEntity
  8
DIM-LINE
100
AcDb2dPolyline
 66
     1
 10
0.0
 20
0.0
 30
0.0
  0
VERTEX
  5
A0
100
AcDbEntity
  8
DIM-LINE
100
AcDbVertex
100
AcDb2dVertex
 10
413.999201
 20
1292.691905
 30
0.0
 42
-0.008603
  0
VERTEX
  5
A1
100
AcDbEntity
  8
DIM-LINE
100
AcDbVertex
100
AcDb2dVertex
 10
414.520948
 20
1293.675138
 30
0.0
 42
-0.029301
  0
VERTEX
  5
A2
100
AcDbEntity
  8
DIM-LINE
100
AcDbVertex
100
AcDb2dVertex
 10
415.523547
 20
1295.261406
 30
0.0
 42
-0.091649
  0
VERTEX
  5
A3
100
AcDbEntity
  8
DIM-LINE
100
AcDbVertex
100
AcDb2dVertex
 10
416.808224
 20
1296.496616
 30
0.0
 42
-0.05982
  0
VERTEX
  5
A4
100
AcDbEntity
  8
DIM-LINE
100
AcDbVertex
100
AcDb2dVertex
 10
419.238922
 20
1297.711468
 30
0.0
  0
SEQEND
  5
A5
100
AcDbEntity
  8
DIM-LINE
  0
POLYLINE
  5
A6
100
AcDbEntity
  8
025-DWG
100
AcDb2dPolyline
 66
     1
 10
0.0
 20
0.0
 30
0.0
  0
VERTEX
  5
A7
100
AcDbEntity
  8
025-DWG
100
AcDbVertex
100
AcDb2dVertex
 10
419.260301
 20
1290.962685
 30
0.0
 42
-0.015711
  0
VERTEX
  5
A8
100
AcDbEntity
  8
025-DWG
100
AcDbVertex
100
AcDb2dVertex
 10
419.579894
 20
1291.523275
 30
0.0
 42
-0.044824
  0
VERTEX
  5
A9
100
AcDbEntity
  8
025-DWG
100
AcDbVertex
100
AcDb2dVertex
 10
420.676196
 20
1292.998329
 30
0.0
 42
-0.044824
  0
SEQEND
  5
AA
100
AcDbEntity
  8
025-DWG
  0
LINE
  5
AB
100
AcDbEntity
  8
035-DWG
100
AcDbLine
 10
399.076334
 20
1302.04855
 30
0.0
 11
407.9
 21
1302.04855
 31
0.0
  0
POLYLINE
  5
AC
100
AcDbEntity
  8
DIM-LINE
100
AcDb2dPolyline
 66
     1
 10
0.0
 20
0.0
 30
0.0
  0
VERTEX
  5
AD
100
AcDbEntity
  8
DIM-LINE
100
AcDbVertex
100
AcDb2dVertex
 10
410.150036
 20
1296.050003
 30
0.0
 42
-0.00529
  0
VERTEX
  5
AE
100
AcDbEntity
  8
DIM-LINE
100
AcDbVertex
100
AcDb2dVertex
 10
410.308782
 20
1297.226181
 30
0.0
 42
-0.018284
  0
VERTEX
  5
AF
100
AcDbEntity
  8
DIM-LINE
100
AcDbVertex
100
AcDb2dVertex
 10
411.04821
 20
1301.259833
 30
0.0
  0
SEQEND
  5
B0
100
AcDbEntity
  8
DIM-LINE
  0
POLYLINE
  5
B1
100
AcDbEntity
  8
DIM-LINE
100
AcDb2dPolyline
 66
     1
 10
0.0
 20
0.0
 30
0.0
  0
VERTEX
  5
B2
100
AcDbEntity
  8
DIM-LINE
100
AcDbVertex
100
AcDb2dVertex
 10
405.649964
 20
1296.050003
 30
0.0
 42
0.00529
  0
VERTEX
  5
B3
100
AcDbEntity
  8
DIM-LINE
100
AcDbVertex
100
AcDb2dVertex
 10
405.491218
 20
1297.226181
 30
0.0
 42
0.018284
  0
VERTEX
  5
B4
100
AcDbEntity
  8
DIM-LINE
100
AcDbVertex
100
AcDb2dVertex
 10
404.75179
 20
1301.259833
 30
0.0
  0
SEQEND
  5
B5
100
AcDbEntity
  8
DIM-LINE
  0
LWPOLYLINE
  5
B6
100
AcDbEntity
  8
035-DWG
100
AcDbPolyline
 90
        4
 70
     0
 43
0.0
 10
400.945568
 20
1308.011301
 42
-0.417384
 10
401.059913
 20
1308.271667
 42
-0.026016
 10
402.909434
 20
1308.872613
 42
-0.417384
 10
403.15498
 20
1308.729183
  0
LWPOLYLINE
  5
B7
100
AcDbEntity
  8
035-DWG
100
AcDbPolyline
 90
        6
 70
     0
 43
0.0
 10
410.281331
 20
1309.698729
 10
410.176964
 20
1308.872572
 42
-0.395928
 10
409.965983
 20
1308.698033
 10
408.087442
 20
1308.816221
 42
-0.395928
 10
407.9
 20
1309.015827
 10
407.9
 20
1309.84855
  0
LWPOLYLINE
  5
B8
100
AcDbEntity
  8
035-DWG
100
AcDbPolyline
 90
        4
 70
     0
 43
0.0
 10
405.506864
 20
1309.192174
 42
-0.417384
 10
405.682367
 20
1309.415923
 42
-0.026016
 10
407.623231
 20
1309.538032
 42
-0.417384
 10
407.825393
 20
1309.338043
  0
LWPOLYLINE
  5
B9
100
AcDbEntity
  8
035-DWG
100
AcDbPolyline
 90
        6
 70
     0
 43
0.0
 10
405.444062
 20
1309.689304
 10
405.548429
 20
1308.863147
 42
-0.395928
 10
405.387483
 20
1308.641623
 10
403.538568
 20
1308.288924
 42
-0.395928
 10
403.307375
 20
1308.435643
 10
403.100285
 20
1309.242205
  0
LWPOLYLINE
  5
BA
100
AcDbEntity
  8
035-DWG
100
AcDbPolyline
 90
        6
 70
     0
 43
0.0
 10
422.745116
 20
1302.878296
 10
422.103492
 20
1302.347498
 42
-0.395928
 10
421.830213
 20
1302.364692
 10
420.541721
 20
1303.736796
 42
-0.395928
 10
420.541721
 20
1304.010615
 10
421.111759
 20
1304.617644
  0
LWPOLYLINE
  5
BB
100
AcDbEntity
  8
035-DWG
100
AcDbPolyline
 90
        6
 70
     0
 43
0.0
 10
419.212446
 20
1306.182764
 10
418.722984
 20
1305.509077
 42
-0.395928
 10
418.454015
 20
1305.457769
 10
416.864775
 20
1306.466331
 42
-0.395928
 10
416.796679
 20
1306.731548
 10
417.197846
 20
1307.461269
  0
LWPOLYLINE
  5
BC
100
AcDbEntity
  8
035-DWG
100
AcDbPolyline
 90
        4
 70
     0
 43
0.0
 10
418.917918
 20
1305.777381
 42
-0.417384
 10
419.199021
 20
1305.820347
 42
-0.026016
 10
420.697439
 20
1304.580748
 42
-0.417384
 10
420.707907
 20
1304.296573
  0
LWPOLYLINE
  5
BD
100
AcDbEntity
  8
035-DWG
100
AcDbPolyline
 90
        4
 70
     0
 43
0.0
 10
414.784513
 20
1308.038984
 42
-0.417384
 10
415.046099
 20
1308.150508
 42
-0.026016
 10
416.805718
 20
1307.322494
 42
-0.417384
 10
416.886529
 20
1307.049851
  0
LINE
  5
BE
100
AcDbEntity
  8
035-DWG
100
AcDbLine
 10
416.723666
 20
1302.04855
 30
0.0
 11
407.9
 21
1302.04855
 31
0.0
  0
LWPOLYLINE
  5
BF
100
AcDbEntity
  8
035-DWG
100
AcDbPolyline
 90
        6
 70
     0
 43
0.0
 10
414.968973
 20
1308.504878
 10
414.662428
 20
1307.730631
 42
-0.395928
 10
414.414669
 20
1307.614045
 10
412.624538
 20
1308.195694
 42
-0.395928
 10
412.492625
 20
1308.435643
 10
412.699715
 20
1309.242205
  0
LWPOLYLINE
  5
C0
100
AcDbEntity
  8
035-DWG
100
AcDbPolyline
 90
        4
 70
     0
 43
0.0
 10
410.218529
 20
1309.201599
 42
-0.417384
 10
410.444163
 20
1309.374673
 42
-0.026016
 10
412.354418
 20
1309.010272
 42
-0.417384
 10
412.500494
 20
1308.766291
  0
POLYLINE
  5
C1
100
AcDbEntity
  8
DIM-LINE
100
AcDb2dPolyline
 66
     1
 10
0.0
 20
0.0
 30
0.0
  0
VERTEX
  5
C2
100
AcDbEntity
  8
DIM-LINE
100
AcDbVertex
100
AcDb2dVertex
 10
402.029781
 20
1282.851715
 30
0.0
 42
0.068389
  0
VERTEX
  5
C3
100
AcDbEntity
  8
DIM-LINE
100
AcDbVertex
100
AcDb2dVertex
 10
404.2346
 20
1282.076781
 30
0.0
 42
0.038125
  0
VERTEX
  5
C4
100
AcDbEntity
  8
DIM-LINE
100
AcDbVertex
100
AcDb2dVertex
 10
405.531391
 20
1281.913559
 30
0.0
  0
SEQEND
  5
C5
100
AcDbEntity
  8
DIM-LINE
  0
POLYLINE
  5
C6
100
AcDbEntity
  8
DIM-LINE
100
AcDb2dPolyline
 66
     1
 10
0.0
 20
0.0
 30
0.0
  0
VERTEX
  5
C7
100
AcDbEntity
  8
DIM-LINE
100
AcDbVertex
100
AcDb2dVertex
 10
413.814734
 20
1282.874747
 30
0.0
 42
-0.069856
  0
VERTEX
  5
C8
100
AcDbEntity
  8
DIM-LINE
100
AcDbVertex
100
AcDb2dVertex
 10
411.5654
 20
1282.076781
 30
0.0
 42
-0.038125
  0
VERTEX
  5
C9
100
AcDbEntity
  8
DIM-LINE
100
AcDbVertex
100
AcDb2dVertex
 10
410.268609
 20
1281.913559
 30
0.0
  0
SEQEND
  5
CA
100
AcDbEntity
  8
DIM-LINE
  0
POLYLINE
  5
CB
100
AcDbEntity
  8
035-DWG
100
AcDb2dPolyline
 66
     1
 10
0.0
 20
0.0
 30
0.0
  0
VERTEX
  5
CC
100
AcDbEntity
  8
035-DWG
100
AcDbVertex
100
AcDb2dVertex
 10
416.723666
 20
1302.04855
 30
0.0
 42
-0.106423
  0
VERTEX
  5
CD
100
AcDbEntity
  8
035-DWG
100
AcDbVertex
100
AcDb2dVertex
 10
419.807526
 20
1297.8731
 30
0.0
 42
-0.106423
  0
VERTEX
  5
CE
100
AcDbEntity
  8
035-DWG
100
AcDbVertex
100
AcDb2dVertex
 10
420.9
 20
1292.79855
 30
0.0
 42
-0.106423
  0
VERTEX
  5
CF
100
AcDbEntity
  8
035-DWG
100
AcDbVertex
100
AcDb2dVertex
 10
419.807526
 20
1287.723999
 30
0.0
 42
-0.056042
  0
VERTEX
  5
D0
100
AcDbEntity
  8
035-DWG
100
AcDbVertex
100
AcDb2dVertex
 10
418.4
 20
1285.354794
 30
0.0
  0
SEQEND
  5
D1
100
AcDbEntity
  8
035-DWG
  0
POLYLINE
  5
D2
100
AcDbEntity
  8
DIM-LINE
100
AcDb2dPolyline
 66
     1
 10
0.0
 20
0.0
 30
0.0
  0
VERTEX
  5
D3
100
AcDbEntity
  8
DIM-LINE
100
AcDbVertex
100
AcDb2dVertex
 10
409.866045
 20
1285.123217
 30
0.0
 42
-0.017904
  0
VERTEX
  5
D4
100
AcDbEntity
  8
DIM-LINE
100
AcDbVertex
100
AcDb2dVertex
 10
409.722301
 20
1289.13625
 30
0.0
 42
-0.004335
  0
VERTEX
  5
D5
100
AcDbEntity
  8
DIM-LINE
100
AcDbVertex
100
AcDb2dVertex
 10
409.730732
 20
1290.108709
 30
0.0
 42
-0.018284
  0
SEQEND
  5
D6
100
AcDbEntity
  8
DIM-LINE
  0
POLYLINE
  5
D7
100
AcDbEntity
  8
DIM-LINE
100
AcDb2dPolyline
 66
     1
 10
0.0
 20
0.0
 30
0.0
  0
VERTEX
  5
D8
100
AcDbEntity
  8
DIM-LINE
100
AcDbVertex
100
AcDb2dVertex
 10
405.933955
 20
1285.123217
 30
0.0
 42
0.017904
  0
VERTEX
  5
D9
100
AcDbEntity
  8
DIM-LINE
100
AcDbVertex
100
AcDb2dVertex
 10
406.077699
 20
1289.13625
 30
0.0
 42
0.004335
  0
VERTEX
  5
DA
100
AcDbEntity
  8
DIM-LINE
100
AcDbVertex
100
AcDb2dVertex
 10
406.069268
 20
1290.108709
 30
0.0
 42
0.018284
  0
SEQEND
  5
DB
100
AcDbEntity
  8
DIM-LINE
  0
POLYLINE
  5
DC
100
AcDbEntity
  8
DIM-LINE
100
AcDb2dPolyline
 66
     1
 10
0.0
 20
0.0
 30
0.0
  0
VERTEX
  5
DD
100
AcDbEntity
  8
DIM-LINE
100
AcDbVertex
100
AcDb2dVertex
 10
403.569626
 20
1285.207701
 30
0.0
 42
0.047166
  0
VERTEX
  5
DE
100
AcDbEntity
  8
DIM-LINE
100
AcDbVertex
100
AcDb2dVertex
 10
403.274486
 20
1288.701404
 30
0.0
 42
0.061097
  0
VERTEX
  5
DF
100
AcDbEntity
  8
DIM-LINE
100
AcDbVertex
100
AcDb2dVertex
 10
402.471901
 20
1291.290616
 30
0.0
 42
0.01296
  0
VERTEX
  5
E0
100
AcDbEntity
  8
DIM-LINE
100
AcDbVertex
100
AcDb2dVertex
 10
401.74482
 20
1292.801413
 30
0.0
 42
0.029301
  0
SEQEND
  5
E1
100
AcDbEntity
  8
DIM-LINE
  0
POLYLINE
  5
E2
100
AcDbEntity
  8
035-DWG
100
AcDb2dPolyline
 66
     1
 10
0.0
 20
0.0
 30
0.0
 70
     2
  0
VERTEX
  5
E3
100
AcDbEntity
  8
035-DWG
100
AcDbVertex
100
AcDb2dVertex
 10
418.4
 20
1285.354794
 30
0.0
 42
-0.056447
  0
VERTEX
  5
E4
100
AcDbEntity
  8
035-DWG
100
AcDbVertex
100
AcDb2dVertex
 10
418.471942
 20
1287.597777
 30
0.0
 42
-0.056447
 70
     1
  0
VERTEX
  5
E5
100
AcDbEntity
  8
035-DWG
100
AcDbVertex
100
AcDb2dVertex
 10
419.043686
 20
1289.767859
 30
0.0
 42
-0.044824
  0
VERTEX
  5
E6
100
AcDbEntity
  8
035-DWG
100
AcDbVertex
100
AcDb2dVertex
 10
419.83572
 20
1291.36658
 30
0.0
 42
-0.044824
 70
     1
  0
VERTEX
  5
E7
100
AcDbEntity
  8
035-DWG
100
AcDbVertex
100
AcDb2dVertex
 10
420.9
 20
1292.79855
 30
0.0
  0
SEQEND
  5
E8
100
AcDbEntity
  8
035-DWG
  0
POLYLINE
  5
E9
100
AcDbEntity
  8
025-DWG
100
AcDb2dPolyline
 66
     1
 10
0.0
 20
0.0
 30
0.0
  0
VERTEX
  5
EA
100
AcDbEntity
  8
025-DWG
100
AcDbVertex
100
AcDb2dVertex
 10
418.100977
 20
1285.330607
 30
0.0
 42
-0.056447
  0
VERTEX
  5
EB
100
AcDbEntity
  8
025-DWG
100
AcDbVertex
100
AcDb2dVertex
 10
418.175084
 20
1287.641076
 30
0.0
 42
-0.024827
  0
VERTEX
  5
EC
100
AcDbEntity
  8
025-DWG
100
AcDbVertex
100
AcDb2dVertex
 10
418.372079
 20
1288.641201
 30
0.0
 42
-0.044824
  0
SEQEND
  5
ED
100
AcDbEntity
  8
025-DWG
  0
POLYLINE
  5
EE
100
AcDbEntity
  8
DIM-LINE
100
AcDb2dPolyline
 66
     1
 10
0.0
 20
0.0
 30
0.0
  0
VERTEX
  5
EF
100
AcDbEntity
  8
DIM-LINE
100
AcDbVertex
100
AcDb2dVertex
 10
412.230374
 20
1285.207701
 30
0.0
 42
-0.047166
  0
VERTEX
  5
F0
100
AcDbEntity
  8
DIM-LINE
100
AcDbVertex
100
AcDb2dVertex
 10
412.525514
 20
1288.701404
 30
0.0
 42
-0.003614
  0
VERTEX
  5
F1
100
AcDbEntity
  8
DIM-LINE
100
AcDbVertex
100
AcDb2dVertex
 10
412.55524
 20
1288.859576
 30
0.0
 42
-0.020614
  0
SEQEND
  5
F2
100
AcDbEntity
  8
DIM-LINE
  0
LWPOLYLINE
  5
F3
100
AcDbEntity
  8
035-DWG
100
AcDbPolyline
 90
        4
 70
     0
 43
0.0
 10
422.359026
 20
1302.558895
 42
-0.417384
 10
422.641983
 20
1302.530604
 42
-0.026016
 10
423.78505
 20
1300.957307
 42
-0.417384
 10
423.724518
 20
1300.679457
  0
POLYLINE
  5
F4
100
AcDbEntity
  8
035-DWG
100
AcDb2dPolyline
 66
     1
 10
0.0
 20
0.0
 30
0.0
 70
     2
  0
VERTEX
  5
F5
100
AcDbEntity
  8
035-DWG
100
AcDbVertex
100
AcDb2dVertex
 10
427.778738
 20
1365.05516
 30
0.0
 42
-0.03058
  0
VERTEX
  5
F6
100
AcDbEntity
  8
035-DWG
100
AcDbVertex
100
AcDb2dVertex
 10
424.995697
 20
1362.219082
 30
0.0
 42
-0.049321
 70
     1
  0
VERTEX
  5
F7
100
AcDbEntity
  8
035-DWG
100
AcDbVertex
100
AcDb2dVertex
 10
423.00951
 20
1360.755251
 30
0.0
 42
-0.011861
  0
VERTEX
  5
F8
100
AcDbEntity
  8
035-DWG
100
AcDbVertex
100
AcDb2dVertex
 10
418.975847
 20
1358.483868
 30
0.0
 42
-0.03058
 70
     1
  0
VERTEX
  5
F9
100
AcDbEntity
  8
035-DWG
100
AcDbVertex
100
AcDb2dVertex
 10
417.341049
 20
1357.738091
 30
0.0
 42
-0.03058
  0
VERTEX
  5
FA
100
AcDbEntity
  8
035-DWG
100
AcDbVertex
100
AcDb2dVertex
 10
414.273472
 20
1356.769963
 30
0.0
 42
-0.03058
 70
     1
  0
VERTEX
  5
FB
100
AcDbEntity
  8
035-DWG
100
AcDbVertex
100
AcDb2dVertex
 10
411.110711
 20
1356.183242
 30
0.0
 42
-0.03058
  0
VERTEX
  5
FC
100
AcDbEntity
  8
035-DWG
100
AcDbVertex
100
AcDb2dVertex
 10
407.9
 20
1355.98669
 30
0.0
 42
-0.03058
 70
     1
  0
VERTEX
  5
FD
100
AcDbEntity
  8
035-DWG
100
AcDbVertex
100
AcDb2dVertex
 10
404.689289
 20
1356.183242
 30
0.0
 42
-0.03058
  0
VERTEX
  5
FE
100
AcDbEntity
  8
035-DWG
100
AcDbVertex
100
AcDb2dVertex
 10
401.526528
 20
1356.769963
 30
0.0
 42
-0.03058
 70
     1
  0
VERTEX
  5
FF
100
AcDbEntity
  8
035-DWG
100
AcDbVertex
100
AcDb2dVertex
 10
398.458951
 20
1357.738091
 30
0.0
 42
-0.03058
  0
VERTEX
  5
100
100
AcDbEntity
  8
035-DWG
100
AcDbVertex
100
AcDb2dVertex
 10
396.824153
 20
1358.483868
 30
0.0
 42
-0.011861
 70
     1
  0
VERTEX
  5
101
100
AcDbEntity
  8
035-DWG
100
AcDbVertex
100
AcDb2dVertex
 10
392.79049
 20
1360.755251
 30
0.0
 42
-0.049321
  0
VERTEX
  5
102
100
AcDbEntity
  8
035-DWG
100
AcDbVertex
100
AcDb2dVertex
 10
390.804303
 20
1362.219082
 30
0.0
 42
-0.03058
 70
     1
  0
VERTEX
  5
103
100
AcDbEntity
  8
035-DWG
100
AcDbVertex
100
AcDb2dVertex
 10
388.021262
 20
1365.05516
 30
0.0
  0
SEQEND
  5
104
100
AcDbEntity
  8
035-DWG
  0
ARC
  5
105
100
AcDbEntity
  8
025-DWG
100
AcDbCircle
 10
407.9
 20
1382.24855
 30
0.0
 40
25.025843
100
AcDbArc
 50
220.856972
 51
319.143028
  0
ARC
  5
106
100
AcDbEntity
  8
025-DWG
100
AcDbCircle
 10
407.9
 20
1382.24855
 30
0.0
 40
26.0255
100
AcDbArc
 50
220.856972
 51
319.143028
  0
LINE
  5
107
100
AcDbEntity
  8
035-DWG
100
AcDbLine
 10
387.276948
 20
1367.204934
 30
0.0
 11
386.954102
 21
1367.250252
 31
0.0
  0
LINE
  5
108
100
AcDbEntity
  8
035-DWG
100
AcDbLine
 10
387.360633
 20
1366.535953
 30
0.0
 11
387.276948
 21
1367.204934
 31
0.0
  0
LINE
  5
109
100
AcDbEntity
  8
025-DWG
100
AcDbLine
 10
387.276948
 20
1367.204934
 30
0.0
 11
387.524063
 21
1367.235276
 31
0.0
  0
LINE
  5
10A
100
AcDbEntity
  8
025-DWG
100
AcDbLine
 10
387.193358
 20
1367.279629
 30
0.0
 11
387.524063
 21
1367.235276
 31
0.0
  0
LINE
  5
10B
100
AcDbEntity
  8
025-DWG
100
AcDbLine
 10
387.193358
 20
1367.279629
 30
0.0
 11
386.954102
 21
1367.250252
 31
0.0
  0
LINE
  5
10C
100
AcDbEntity
  8
025-DWG
100
AcDbLine
 10
387.199343
 20
1367.775536
 30
0.0
 11
386.957324
 21
1367.74582
 31
0.0
  0
LINE
  5
10D
100
AcDbEntity
  8
025-DWG
100
AcDbLine
 10
387.138409
 20
1368.271809
 30
0.0
 11
386.895261
 21
1368.241955
 31
0.0
  0
LINE
  5
10E
100
AcDbEntity
  8
025-DWG
100
AcDbLine
 10
387.077474
 20
1368.768082
 30
0.0
 11
386.833198
 21
1368.738089
 31
0.0
  0
LINE
  5
10F
100
AcDbEntity
  8
025-DWG
100
AcDbLine
 10
387.619218
 20
1366.567703
 30
0.0
 11
387.360633
 21
1366.535953
 31
0.0
  0
LINE
  5
110
100
AcDbEntity
  8
025-DWG
100
AcDbLine
 10
388.611424
 20
1366.689531
 30
0.0
 11
387.619218
 21
1366.567703
 31
0.0
  0
ARC
  5
111
100
AcDbEntity
  8
025-DWG
100
AcDbCircle
 10
390.125894
 20
1366.875484
 30
0.0
 40
1.525843
100
AcDbArc
 50
187.0
 51
220.856972
  0
ARC
  5
112
100
AcDbEntity
  8
025-DWG
100
AcDbCircle
 10
390.125894
 20
1366.875484
 30
0.0
 40
2.5255
100
AcDbArc
 50
187.0
 51
220.856972
  0
LINE
  5
113
100
AcDbEntity
  8
025-DWG
100
AcDbLine
 10
388.215744
 20
1365.22337
 30
0.0
 11
388.021262
 21
1365.05516
 31
0.0
  0
LINE
  5
114
100
AcDbEntity
  8
025-DWG
100
AcDbLine
 10
388.97183
 20
1365.877319
 30
0.0
 11
388.215744
 21
1365.22337
 31
0.0
  0
LWPOLYLINE
  5
115
100
AcDbEntity
  8
025-DWG
100
AcDbPolyline
 90
        4
 70
     0
 43
0.0
 10
387.423423
 20
1368.054927
 10
387.404554
 20
1367.926672
 10
387.322535
 20
1367.824407
 10
387.199343
 20
1367.775536
  0
LWPOLYLINE
  5
116
100
AcDbEntity
  8
025-DWG
100
AcDbPolyline
 90
        6
 70
     0
 43
0.0
 10
387.199343
 20
1367.775536
 10
387.065622
 20
1367.718482
 10
386.984878
 20
1367.599774
 10
386.983164
 20
1367.457713
 10
387.061032
 20
1367.338137
 10
387.193358
 20
1367.279629
  0
LWPOLYLINE
  5
117
100
AcDbEntity
  8
025-DWG
100
AcDbPolyline
 90
        6
 70
     0
 43
0.0
 10
387.077474
 20
1368.768082
 10
386.933674
 20
1368.702322
 10
386.856438
 20
1368.5669
 10
386.875268
 20
1368.413543
 10
386.982971
 20
1368.300828
 10
387.138409
 20
1368.271809
  0
LWPOLYLINE
  5
118
100
AcDbEntity
  8
025-DWG
100
AcDbPolyline
 90
        4
 70
     0
 43
0.0
 10
387.138409
 20
1368.271809
 10
387.269764
 20
1368.254193
 10
387.374086
 20
1368.174808
 10
387.423423
 20
1368.054927
  0
LWPOLYLINE
  5
119
100
AcDbEntity
  8
035-DWG
100
AcDbPolyline
 90
        3
 70
     0
 43
0.0
 10
388.021262
 20
1365.05516
 10
387.58087
 20
1365.746447
 10
387.360633
 20
1366.535953
  0
LWPOLYLINE
  5
11A
100
AcDbEntity
  8
035-DWG
100
AcDbPolyline
 90
        7
 70
     0
 43
0.0
 10
386.957324
 20
1367.74582
 10
387.077242
 20
1367.794289
 10
387.156714
 20
1367.896241
 10
387.174444
 20
1368.024357
 10
387.125683
 20
1368.144308
 10
387.023494
 20
1368.223954
 10
386.895261
 20
1368.241955
  0
LWPOLYLINE
  5
11B
100
AcDbEntity
  8
035-DWG
100
AcDbPolyline
 90
        6
 70
     0
 43
0.0
 10
386.954102
 20
1367.250252
 10
386.824706
 20
1367.30912
 10
386.748112
 20
1367.428852
 10
386.749035
 20
1367.570816
 10
386.827176
 20
1367.689205
 10
386.957324
 20
1367.74582
  0
LWPOLYLINE
  5
11C
100
AcDbEntity
  8
035-DWG
100
AcDbPolyline
 90
        6
 70
     0
 43
0.0
 10
386.895261
 20
1368.241955
 10
386.743474
 20
1368.271422
 10
386.637812
 20
1368.384387
 10
386.618633
 20
1368.537701
 10
386.693264
 20
1368.672803
 10
386.833198
 20
1368.738089
  0
LINE
  5
11D
100
AcDbEntity
  8
025-DWG
100
AcDbLine
 10
388.359137
 20
1368.744245
 30
0.0
 11
388.611424
 21
1366.689531
 31
0.0
  0
LINE
  5
11E
100
AcDbEntity
  8
025-DWG
100
AcDbLine
 10
387.619218
 20
1366.567703
 30
0.0
 11
387.334502
 21
1368.886525
 31
0.0
  0
LWPOLYLINE
  5
11F
100
AcDbEntity
  8
025-DWG
100
AcDbPolyline
 90
        3
 70
     0
 43
0.0
 10
387.264479
 20
1368.896519
 10
387.200666
 20
1368.816954
 10
387.077474
 20
1368.768082
  0
LWPOLYLINE
  5
120
100
AcDbEntity
  8
035-DWG
100
AcDbPolyline
 90
        3
 70
     0
 43
0.0
 10
386.833198
 20
1368.738089
 10
386.973132
 20
1368.803375
 10
387.042234
 20
1368.928469
  0
LINE
  5
121
100
AcDbEntity
  8
035-DWG
100
AcDbLine
 10
428.845898
 20
1367.250252
 30
0.0
 11
428.523052
 21
1367.204934
 31
0.0
  0
LINE
  5
122
100
AcDbEntity
  8
035-DWG
100
AcDbLine
 10
428.523052
 20
1367.204934
 30
0.0
 11
428.439367
 21
1366.535953
 31
0.0
  0
LINE
  5
123
100
AcDbEntity
  8
025-DWG
100
AcDbLine
 10
428.275937
 20
1367.235276
 30
0.0
 11
428.523052
 21
1367.204934
 31
0.0
  0
LINE
  5
124
100
AcDbEntity
  8
025-DWG
100
AcDbLine
 10
428.275937
 20
1367.235276
 30
0.0
 11
428.606642
 21
1367.279629
 31
0.0
  0
LINE
  5
125
100
AcDbEntity
  8
025-DWG
100
AcDbLine
 10
428.600657
 20
1367.775536
 30
0.0
 11
428.842676
 21
1367.74582
 31
0.0
  0
LINE
  5
126
100
AcDbEntity
  8
025-DWG
100
AcDbLine
 10
428.606642
 20
1367.279629
 30
0.0
 11
428.845898
 21
1367.250252
 31
0.0
  0
LINE
  5
127
100
AcDbEntity
  8
025-DWG
100
AcDbLine
 10
428.722526
 20
1368.768082
 30
0.0
 11
428.966802
 21
1368.738089
 31
0.0
  0
LINE
  5
128
100
AcDbEntity
  8
025-DWG
100
AcDbLine
 10
428.661591
 20
1368.271809
 30
0.0
 11
428.904739
 21
1368.241955
 31
0.0
  0
LINE
  5
129
100
AcDbEntity
  8
025-DWG
100
AcDbLine
 10
428.180782
 20
1366.567703
 30
0.0
 11
428.439367
 21
1366.535953
 31
0.0
  0
LINE
  5
12A
100
AcDbEntity
  8
025-DWG
100
AcDbLine
 10
426.82817
 20
1365.877319
 30
0.0
 11
427.584256
 21
1365.22337
 31
0.0
  0
ARC
  5
12B
100
AcDbEntity
  8
025-DWG
100
AcDbCircle
 10
425.674106
 20
1366.875484
 30
0.0
 40
1.525843
100
AcDbArc
 50
319.143028
 51
353.0
  0
LINE
  5
12C
100
AcDbEntity
  8
025-DWG
100
AcDbLine
 10
427.188576
 20
1366.689531
 30
0.0
 11
428.180782
 21
1366.567703
 31
0.0
  0
ARC
  5
12D
100
AcDbEntity
  8
025-DWG
100
AcDbCircle
 10
425.674106
 20
1366.875484
 30
0.0
 40
2.5255
100
AcDbArc
 50
319.143028
 51
353.0
  0
LINE
  5
12E
100
AcDbEntity
  8
025-DWG
100
AcDbLine
 10
427.584256
 20
1365.22337
 30
0.0
 11
427.778738
 21
1365.05516
 31
0.0
  0
LWPOLYLINE
  5
12F
100
AcDbEntity
  8
025-DWG
100
AcDbPolyline
 90
        6
 70
     0
 43
0.0
 10
428.606642
 20
1367.279629
 10
428.738968
 20
1367.338137
 10
428.816836
 20
1367.457713
 10
428.815122
 20
1367.599774
 10
428.734378
 20
1367.718482
 10
428.600657
 20
1367.775536
  0
LWPOLYLINE
  5
130
100
AcDbEntity
  8
025-DWG
100
AcDbPolyline
 90
        3
 70
     0
 43
0.0
 10
428.600657
 20
1367.775536
 10
428.429589
 20
1367.870314
 10
428.376577
 20
1368.054927
  0
LWPOLYLINE
  5
131
100
AcDbEntity
  8
025-DWG
100
AcDbPolyline
 90
        6
 70
     0
 43
0.0
 10
428.661591
 20
1368.271809
 10
428.817029
 20
1368.300828
 10
428.924732
 20
1368.413543
 10
428.943562
 20
1368.5669
 10
428.866326
 20
1368.702322
 10
428.722526
 20
1368.768082
  0
LWPOLYLINE
  5
132
100
AcDbEntity
  8
025-DWG
100
AcDbPolyline
 90
        4
 70
     0
 43
0.0
 10
428.376577
 20
1368.054927
 10
428.425914
 20
1368.174808
 10
428.530236
 20
1368.254193
 10
428.661591
 20
1368.271809
  0
LWPOLYLINE
  5
133
100
AcDbEntity
  8
035-DWG
100
AcDbPolyline
 90
        3
 70
     0
 43
0.0
 10
428.439367
 20
1366.535953
 10
428.21913
 20
1365.746447
 10
427.778738
 20
1365.05516
  0
LWPOLYLINE
  5
134
100
AcDbEntity
  8
035-DWG
100
AcDbPolyline
 90
        6
 70
     0
 43
0.0
 10
428.966802
 20
1368.738089
 10
429.106736
 20
1368.672803
 10
429.181367
 20
1368.537701
 10
429.162188
 20
1368.384387
 10
429.056526
 20
1368.271422
 10
428.904739
 20
1368.241955
  0
LWPOLYLINE
  5
135
100
AcDbEntity
  8
035-DWG
100
AcDbPolyline
 90
        6
 70
     0
 43
0.0
 10
428.904739
 20
1368.241955
 10
428.752953
 20
1368.212487
 10
428.64729
 20
1368.099522
 10
428.628112
 20
1367.946208
 10
428.702743
 20
1367.811106
 10
428.842676
 20
1367.74582
  0
LWPOLYLINE
  5
136
100
AcDbEntity
  8
035-DWG
100
AcDbPolyline
 90
        6
 70
     0
 43
0.0
 10
428.842676
 20
1367.74582
 10
428.972824
 20
1367.689205
 10
429.050965
 20
1367.570816
 10
429.051888
 20
1367.428852
 10
428.975294
 20
1367.30912
 10
428.845898
 20
1367.250252
  0
LINE
  5
137
100
AcDbEntity
  8
025-DWG
100
AcDbLine
 10
427.188576
 20
1366.689531
 30
0.0
 11
427.440863
 21
1368.744245
 31
0.0
  0
LWPOLYLINE
  5
138
100
AcDbEntity
  8
035-DWG
100
AcDbPolyline
 90
        3
 70
     0
 43
0.0
 10
428.757766
 20
1368.928469
 10
428.826868
 20
1368.803375
 10
428.966802
 20
1368.738089
  0
LWPOLYLINE
  5
139
100
AcDbEntity
  8
025-DWG
100
AcDbPolyline
 90
        3
 70
     0
 43
0.0
 10
428.722526
 20
1368.768082
 10
428.551458
 20
1368.86286
 10
428.541545
 20
1368.89738
  0
LINE
  5
13A
100
AcDbEntity
  8
025-DWG
100
AcDbLine
 10
428.465498
 20
1368.886525
 30
0.0
 11
428.180782
 21
1366.567703
 31
0.0
  0
CIRCLE
  5
13B
100
AcDbEntity
  8
025-DWG
100
AcDbCircle
 10
407.9
 20
1365.84855
 30
0.0
 40
0.75
  0
ARC
  5
13C
100
AcDbEntity
  8
025-DWG
100
AcDbCircle
 10
407.9
 20
1365.84855
 30
0.0
 40
5.0
100
AcDbArc
 50
160.65084
 51
19.34916
  0
LINE
  5
13D
100
AcDbEntity
  8
035-DWG
100
AcDbLine
 10
271.27194
 20
1535.591084
 30
0.0
 11
294.124483
 21
1540.189127
 31
0.0
  0
LINE
  5
13E
100
AcDbEntity
  8
035-DWG
100
AcDbLine
 10
280.084228
 20
1535.545814
 30
0.0
 11
307.466134
 21
1540.177489
 31
0.0
  0
LINE
  5
13F
100
AcDbEntity
  8
035-DWG
100
AcDbLine
 10
280.134288
 20
1534.369017
 30
0.0
 11
307.514967
 21
1538.969933
 31
0.0
  0
LINE
  5
140
100
AcDbEntity
  8
035-DWG
100
AcDbLine
 10
271.27194
 20
1490.866571
 30
0.0
 11
294.124483
 21
1486.268528
 31
0.0
  0
LINE
  5
141
100
AcDbEntity
  8
035-DWG
100
AcDbLine
 10
280.134288
 20
1492.088638
 30
0.0
 11
307.514967
 21
1487.487722
 31
0.0
  0
LINE
  5
142
100
AcDbEntity
  8
035-DWG
100
AcDbLine
 10
280.084228
 20
1490.911841
 30
0.0
 11
307.466134
 21
1486.280166
 31
0.0
  0
LWPOLYLINE
  5
143
100
AcDbEntity
  8
025-DWG
  6
CONTINUOUS
100
AcDbPolyline
 90
        3
 70
   128
 43
0.0
 10
271.678786
 20
1461.253632
 10
258.675485
 20
1464.028976
 10
230.40083
 20
1470.063731
  0
LINE
  5
144
100
AcDbEntity
  8
035-DWG
  6
CONTINUOUS
100
AcDbLine
 10
230.107637
 20
1469.291058
 30
0.0
 11
272.013651
 21
1460.384338
 31
0.0
  0
LINE
  5
145
100
AcDbEntity
  8
035-DWG
100
AcDbLine
 10
279.3
 20
1493.074812
 30
0.0
 11
279.3
 21
1533.382843
 31
0.0
  0
LINE
  5
146
100
AcDbEntity
  8
035-DWG
100
AcDbLine
 10
278.251148
 20
1493.081027
 30
0.0
 11
278.251148
 21
1533.376628
 31
0.0
  0
LINE
  5
147
100
AcDbEntity
  8
035-DWG
100
AcDbLine
 10
269.505894
 20
1493.023347
 30
0.0
 11
269.505894
 21
1533.434308
 31
0.0
  0
LWPOLYLINE
  5
148
100
AcDbEntity
  8
025-DWG
  6
CONTINUOUS
100
AcDbPolyline
 90
       12
 70
   128
 43
0.0
 10
242.09831
 20
1484.088025
 10
241.173164
 20
1490.481995
 10
240.430062
 20
1496.924958
 10
239.869215
 20
1497.451174
 10
239.498588
 20
1504.005476
 10
239.318349
 20
1510.720526
 10
239.339335
 20
1517.440523
 10
239.56417
 20
1524.203513
 10
239.992094
 20
1524.946145
 10
240.539282
 20
1530.889579
 10
241.242356
 20
1536.801116
 10
242.09831
 20
1542.668603
  0
LWPOLYLINE
  5
149
100
AcDbEntity
  8
025-DWG
  6
CONTINUOUS
100
AcDbPolyline
 90
       12
 70
   128
 43
0.0
 10
241.196975
 20
1542.974377
 10
240.264122
 20
1536.494864
 10
239.51583
 20
1529.965973
 10
238.952306
 20
1523.352988
 10
238.581561
 20
1522.711836
 10
238.403838
 20
1515.908116
 10
238.429985
 20
1509.099687
 10
238.662673
 20
1502.24803
 10
239.101079
 20
1501.417293
 10
239.64833
 20
1495.503781
 10
240.34792
 20
1489.621544
 10
241.196975
 20
1483.782251
  0
LWPOLYLINE
  5
14A
100
AcDbEntity
  8
035-DWG
  6
CONTINUOUS
100
AcDbPolyline
 90
       15
 70
   128
 43
0.0
 10
228.178139
 20
1555.52142
 10
226.91448
 20
1548.867503
 10
225.832642
 20
1542.138112
 10
224.937719
 20
1535.349378
 10
224.234802
 20
1528.517432
 10
223.71575
 20
1527.447879
 10
223.404829
 20
1520.344942
 10
223.303257
 20
1513.228827
 10
223.41225
 20
1506.11974
 10
223.718282
 20
1499.258344
 10
224.219247
 20
1498.418922
 10
224.91242
 20
1491.619215
 10
225.811081
 20
1484.761319
 10
226.901543
 20
1477.96125
 10
228.178139
 20
1471.235208
  0
LWPOLYLINE
  5
14B
100
AcDbEntity
  8
025-DWG
  6
CONTINUOUS
100
AcDbPolyline
 90
       15
 70
   128
 43
0.0
 10
229.243219
 20
1471.235102
 10
227.985282
 20
1477.889027
 10
226.908344
 20
1484.618427
 10
226.017473
 20
1491.40717
 10
225.317738
 20
1498.239125
 10
224.801036
 20
1499.308688
 10
224.491522
 20
1506.411634
 10
224.390409
 20
1513.527759
 10
224.498908
 20
1520.636856
 10
224.803553
 20
1527.498275
 10
225.30225
 20
1528.33772
 10
225.992283
 20
1535.13745
 10
226.886876
 20
1541.995369
 10
227.972401
 20
1548.795462
 10
229.243219
 20
1555.521526
  0
LWPOLYLINE
  5
14C
100
AcDbEntity
  8
025-DWG
  6
CONTINUOUS
100
AcDbPolyline
 90
        5
 70
   128
 43
0.0
 10
241.196975
 20
1483.782251
 10
241.528508
 20
1482.809081
 10
242.167089
 20
1482.004341
 10
243.041266
 20
1481.461118
 10
243.845825
 20
1481.260549
  0
LWPOLYLINE
  5
14D
100
AcDbEntity
  8
025-DWG
  6
CONTINUOUS
100
AcDbPolyline
 90
        5
 70
   128
 43
0.0
 10
243.864304
 20
1482.413895
 10
243.21231
 20
1482.597782
 10
242.664924
 20
1482.982973
 10
242.269392
 20
1483.539402
 10
242.09831
 20
1484.088025
  0
LWPOLYLINE
  5
14E
100
AcDbEntity
  8
025-DWG
  6
CONTINUOUS
100
AcDbPolyline
 90
        9
 70
   128
 43
0.0
 10
242.09831
 20
1484.088025
 10
242.085528
 20
1484.055541
 10
242.038169
 20
1484.018625
 10
241.957911
 20
1483.978584
 10
241.847603
 20
1483.93684
 10
241.711158
 20
1483.894874
 10
241.553415
 20
1483.854174
 10
241.37997
 20
1483.816183
 10
241.196975
 20
1483.782251
  0
LWPOLYLINE
  5
14F
100
AcDbEntity
  8
025-DWG
  6
CONTINUOUS
100
AcDbPolyline
 90
        5
 70
   128
 43
0.0
 10
230.40083
 20
1470.063731
 10
229.931009
 20
1470.251514
 10
229.553205
 20
1470.581517
 10
229.302099
 20
1471.024991
 10
229.243219
 20
1471.235102
  0
LWPOLYLINE
  5
150
100
AcDbEntity
  8
025-DWG
  6
CONTINUOUS
100
AcDbPolyline
 90
        9
 70
   128
 43
0.0
 10
230.40083
 20
1470.063731
 10
230.360341
 20
1469.901831
 10
230.318511
 20
1469.750938
 10
230.276591
 20
1469.615573
 10
230.235837
 20
1469.499793
 10
230.197472
 20
1469.407066
 10
230.162644
 20
1469.34017
 10
230.132397
 20
1469.301111
 10
230.107637
 20
1469.291058
  0
LWPOLYLINE
  5
151
100
AcDbEntity
  8
035-DWG
  6
CONTINUOUS
100
AcDbPolyline
 90
        5
 70
   128
 43
0.0
 10
228.178139
 20
1471.235208
 10
228.485807
 20
1470.446601
 10
229.039506
 20
1469.805461
 10
229.776152
 20
1469.385815
 10
230.107637
 20
1469.291058
  0
LWPOLYLINE
  5
152
100
AcDbEntity
  8
025-DWG
  6
CONTINUOUS
100
AcDbPolyline
 90
        9
 70
   128
 43
0.0
 10
229.243219
 20
1471.235102
 10
229.045701
 20
1471.197205
 10
228.852732
 20
1471.168986
 10
228.672144
 20
1471.151589
 10
228.511264
 20
1471.14572
 10
228.37662
 20
1471.151618
 10
228.273676
 20
1471.169043
 10
228.206609
 20
1471.197289
 10
228.178139
 20
1471.235208
  0
LINE
  5
153
100
AcDbEntity
  8
025-DWG
100
AcDbLine
 10
271.27194
 20
1490.866571
 30
0.0
 11
280.084228
 21
1490.911841
 31
0.0
  0
ARC
  5
154
100
AcDbEntity
  8
035-DWG
100
AcDbCircle
 10
280.451148
 20
1493.081027
 30
0.0
 40
2.2
100
AcDbArc
 50
180.0
 51
260.399244
  0
ARC
  5
155
100
AcDbEntity
  8
035-DWG
100
AcDbCircle
 10
280.3
 20
1493.074812
 30
0.0
 40
1.0
100
AcDbArc
 50
180.0
 51
260.461406
  0
LINE
  5
156
100
AcDbEntity
  8
025-DWG
100
AcDbLine
 10
269.505894
 20
1493.023347
 30
0.0
 11
278.251148
 21
1493.081027
 31
0.0
  0
ARC
  5
157
100
AcDbEntity
  8
035-DWG
100
AcDbCircle
 10
271.705894
 20
1493.023347
 30
0.0
 40
2.2
100
AcDbArc
 50
180.0
 51
258.623705
  0
LWPOLYLINE
  5
158
100
AcDbEntity
  8
025-DWG
  6
CONTINUOUS
100
AcDbPolyline
 90
        9
 70
   128
 43
0.0
 10
243.864304
 20
1482.413895
 10
243.883826
 20
1482.388685
 10
243.897633
 20
1482.318824
 10
243.90509
 20
1482.207531
 10
243.905853
 20
1482.059932
 10
243.899887
 20
1481.882827
 10
243.887468
 20
1481.684374
 10
243.869166
 20
1481.473713
 10
243.845825
 20
1481.260549
  0
LINE
  5
159
100
AcDbEntity
  8
025-DWG
  6
CONTINUOUS
100
AcDbLine
 10
265.914517
 20
1480.096325
 30
0.0
 11
243.864304
 21
1482.413895
 31
0.0
  0
LINE
  5
15A
100
AcDbEntity
  8
025-DWG
  6
CONTINUOUS
100
AcDbLine
 10
243.845825
 20
1481.260549
 30
0.0
 11
266.198686
 21
1478.901324
 31
0.0
  0
LWPOLYLINE
  5
15B
100
AcDbEntity
  8
025-DWG
  6
CONTINUOUS
100
AcDbPolyline
 90
        5
 70
   128
 43
0.0
 10
243.845825
 20
1545.496078
 10
242.874752
 20
1545.222389
 10
242.053709
 20
1544.645747
 10
241.463214
 20
1543.820831
 10
241.196975
 20
1542.974377
  0
LWPOLYLINE
  5
15C
100
AcDbEntity
  8
025-DWG
  6
CONTINUOUS
100
AcDbPolyline
 90
        5
 70
   128
 43
0.0
 10
242.09831
 20
1542.668603
 10
242.32438
 20
1543.323774
 10
242.75959
 20
1543.861669
 10
243.358603
 20
1544.221607
 10
243.864304
 20
1544.342732
  0
LWPOLYLINE
  5
15D
100
AcDbEntity
  8
025-DWG
  6
CONTINUOUS
100
AcDbPolyline
 90
        5
 70
   128
 43
0.0
 10
229.243219
 20
1555.521526
 10
229.432294
 20
1556.00414
 10
229.774614
 20
1556.394899
 10
230.22918
 20
1556.645413
 10
230.40083
 20
1556.692897
  0
LWPOLYLINE
  5
15E
100
AcDbEntity
  8
025-DWG
  6
CONTINUOUS
100
AcDbPolyline
 90
        9
 70
   128
 43
0.0
 10
230.40083
 20
1556.692897
 10
230.360341
 20
1556.854797
 10
230.318511
 20
1557.00569
 10
230.276591
 20
1557.141055
 10
230.235837
 20
1557.256835
 10
230.197472
 20
1557.349562
 10
230.162644
 20
1557.416457
 10
230.132397
 20
1557.455517
 10
230.107637
 20
1557.46557
  0
LWPOLYLINE
  5
15F
100
AcDbEntity
  8
025-DWG
  6
CONTINUOUS
100
AcDbPolyline
 90
        9
 70
   128
 43
0.0
 10
242.09831
 20
1542.668603
 10
242.085528
 20
1542.701086
 10
242.038169
 20
1542.738003
 10
241.957911
 20
1542.778044
 10
241.847603
 20
1542.819788
 10
241.711158
 20
1542.861754
 10
241.553415
 20
1542.902454
 10
241.37997
 20
1542.940444
 10
241.196975
 20
1542.974377
  0
LWPOLYLINE
  5
160
100
AcDbEntity
  8
035-DWG
  6
CONTINUOUS
100
AcDbPolyline
 90
        5
 70
   128
 43
0.0
 10
230.107637
 20
1557.46557
 10
229.32588
 20
1557.154696
 10
228.693195
 20
1556.604155
 10
228.27681
 20
1555.871561
 10
228.178139
 20
1555.52142
  0
LWPOLYLINE
  5
161
100
AcDbEntity
  8
025-DWG
  6
CONTINUOUS
100
AcDbPolyline
 90
        9
 70
   128
 43
0.0
 10
229.243219
 20
1555.521526
 10
229.045701
 20
1555.559423
 10
228.852732
 20
1555.587642
 10
228.672144
 20
1555.605039
 10
228.511264
 20
1555.610908
 10
228.37662
 20
1555.60501
 10
228.273676
 20
1555.587585
 10
228.206609
 20
1555.559339
 10
228.178139
 20
1555.52142
  0
ARC
  5
162
100
AcDbEntity
  8
035-DWG
100
AcDbCircle
 10
280.451148
 20
1533.376628
 30
0.0
 40
2.2
100
AcDbArc
 50
99.600756
 51
180.0
  0
LINE
  5
163
100
AcDbEntity
  8
025-DWG
100
AcDbLine
 10
271.27194
 20
1535.591084
 30
0.0
 11
280.084228
 21
1535.545814
 31
0.0
  0
ARC
  5
164
100
AcDbEntity
  8
035-DWG
100
AcDbCircle
 10
280.3
 20
1533.382843
 30
0.0
 40
1.0
100
AcDbArc
 50
99.538594
 51
180.0
  0
LINE
  5
165
100
AcDbEntity
  8
025-DWG
100
AcDbLine
 10
269.505894
 20
1533.434308
 30
0.0
 11
278.251148
 21
1533.376628
 31
0.0
  0
ARC
  5
166
100
AcDbEntity
  8
035-DWG
100
AcDbCircle
 10
271.705894
 20
1533.434308
 30
0.0
 40
2.2
100
AcDbArc
 50
101.376295
 51
180.0
  0
LWPOLYLINE
  5
167
100
AcDbEntity
  8
025-DWG
  6
CONTINUOUS
100
AcDbPolyline
 90
        9
 70
   128
 43
0.0
 10
243.864304
 20
1544.342732
 10
243.883826
 20
1544.367943
 10
243.897633
 20
1544.437804
 10
243.90509
 20
1544.549097
 10
243.905853
 20
1544.696695
 10
243.899887
 20
1544.873801
 10
243.887468
 20
1545.072254
 10
243.869166
 20
1545.282915
 10
243.845825
 20
1545.496078
  0
LINE
  5
168
100
AcDbEntity
  8
025-DWG
  6
CONTINUOUS
100
AcDbLine
 10
266.273374
 20
1547.863187
 30
0.0
 11
243.845825
 21
1545.496078
 31
0.0
  0
LINE
  5
169
100
AcDbEntity
  8
025-DWG
  6
CONTINUOUS
100
AcDbLine
 10
243.864304
 20
1544.342732
 30
0.0
 11
265.986395
 21
1546.667858
 31
0.0
  0
ARC
  5
16A
100
AcDbEntity
  8
025-DWG
100
AcDbCircle
 10
407.9
 20
1513.228827
 30
0.0
 40
118.0
100
AcDbArc
 50
168.677504
 51
191.322496
  0
ARC
  5
16B
100
AcDbEntity
  8
025-DWG
100
AcDbCircle
 10
407.9
 20
1513.228827
 30
0.0
 40
122.0
100
AcDbArc
 50
169.391714
 51
190.608286
  0
ARC
  5
16C
100
AcDbEntity
  8
035-DWG
100
AcDbCircle
 10
307.299352
 20
1485.294172
 30
0.0
 40
1.0
100
AcDbArc
 50
20.933725
 51
80.399244
  0
LINE
  5
16D
100
AcDbEntity
  8
035-DWG
100
AcDbLine
 10
311.66743
 20
1476.674344
 30
0.0
 11
312.450111
 21
1476.903315
 31
0.0
  0
LINE
  5
16E
100
AcDbEntity
  8
035-DWG
100
AcDbLine
 10
309.22521
 20
1486.049691
 30
0.0
 11
312.450111
 21
1476.903315
 31
0.0
  0
ARC
  5
16F
100
AcDbEntity
  8
035-DWG
100
AcDbCircle
 10
307.150401
 20
1485.318138
 30
0.0
 40
2.2
100
AcDbArc
 50
19.422035
 51
80.461406
  0
LINE
  5
170
100
AcDbEntity
  8
035-DWG
100
AcDbLine
 10
308.233346
 20
1485.65146
 30
0.0
 11
311.66743
 21
1476.674344
 31
0.0
  0
ARC
  5
171
100
AcDbEntity
  8
035-DWG
100
AcDbCircle
 10
293.927231
 20
1485.288175
 30
0.0
 40
1.0
100
AcDbArc
 50
32.677527
 51
78.623705
  0
LINE
  5
172
100
AcDbEntity
  8
025-DWG
100
AcDbLine
 10
294.124483
 20
1486.268528
 30
0.0
 11
307.466134
 21
1486.280166
 31
0.0
  0
LINE
  5
173
100
AcDbEntity
  8
025-DWG
100
AcDbLine
 10
294.768954
 20
1485.828086
 30
0.0
 11
308.233346
 21
1485.65146
 31
0.0
  0
POLYLINE
  5
174
100
AcDbEntity
  8
035-DWG
100
AcDb2dPolyline
 66
     1
 10
0.0
 20
0.0
 30
0.0
  0
VERTEX
  5
175
100
AcDbEntity
  8
035-DWG
100
AcDbVertex
100
AcDb2dVertex
 10
307.59326
 20
1472.544416
 30
0.0
 42
0.119813
  0
VERTEX
  5
176
100
AcDbEntity
  8
035-DWG
100
AcDbVertex
100
AcDb2dVertex
 10
310.431999
 20
1473.959068
 30
0.0
 42
0.135368
  0
VERTEX
  5
177
100
AcDbEntity
  8
035-DWG
100
AcDbVertex
100
AcDb2dVertex
 10
312.450111
 20
1476.903315
 30
0.0
  0
SEQEND
  5
178
100
AcDbEntity
  8
035-DWG
  0
POLYLINE
  5
179
100
AcDbEntity
  8
035-DWG
100
AcDb2dPolyline
 66
     1
 10
0.0
 20
0.0
 30
0.0
 70
     2
  0
VERTEX
  5
17A
100
AcDbEntity
  8
035-DWG
100
AcDbVertex
100
AcDb2dVertex
 10
303.355173
 20
1472.442129
 30
0.0
 42
0.057529
  0
VERTEX
  5
17B
100
AcDbEntity
  8
035-DWG
100
AcDbVertex
100
AcDb2dVertex
 10
304.869371
 20
1472.163165
 30
0.0
 42
0.057529
 70
     1
  0
VERTEX
  5
17C
100
AcDbEntity
  8
035-DWG
100
AcDbVertex
100
AcDb2dVertex
 10
306.407303
 20
1472.236541
 30
0.0
 42
0.135368
  0
VERTEX
  5
17D
100
AcDbEntity
  8
035-DWG
100
AcDbVertex
100
AcDb2dVertex
 10
309.649317
 20
1473.730098
 30
0.0
 42
0.135368
 70
     1
  0
VERTEX
  5
17E
100
AcDbEntity
  8
035-DWG
100
AcDbVertex
100
AcDb2dVertex
 10
311.66743
 20
1476.674344
 30
0.0
  0
SEQEND
  5
17F
100
AcDbEntity
  8
035-DWG
  0
LINE
  5
180
100
AcDbEntity
  8
035-DWG
100
AcDbLine
 10
294.768954
 20
1485.828086
 30
0.0
 11
303.355173
 21
1472.442129
 31
0.0
  0
ARC
  5
181
100
AcDbEntity
  8
035-DWG
100
AcDbCircle
 10
307.299352
 20
1541.163483
 30
0.0
 40
1.0
100
AcDbArc
 50
279.600756
 51
339.066275
  0
LINE
  5
182
100
AcDbEntity
  8
035-DWG
100
AcDbLine
 10
309.22521
 20
1540.407964
 30
0.0
 11
312.450111
 21
1549.55434
 31
0.0
  0
LINE
  5
183
100
AcDbEntity
  8
035-DWG
100
AcDbLine
 10
311.66743
 20
1549.783311
 30
0.0
 11
312.450111
 21
1549.55434
 31
0.0
  0
POLYLINE
  5
184
100
AcDbEntity
  8
035-DWG
100
AcDb2dPolyline
 66
     1
 10
0.0
 20
0.0
 30
0.0
  0
VERTEX
  5
185
100
AcDbEntity
  8
035-DWG
100
AcDbVertex
100
AcDb2dVertex
 10
307.59326
 20
1553.913239
 30
0.0
 42
-0.119813
  0
VERTEX
  5
186
100
AcDbEntity
  8
035-DWG
100
AcDbVertex
100
AcDb2dVertex
 10
310.431999
 20
1552.498587
 30
0.0
 42
-0.135368
  0
VERTEX
  5
187
100
AcDbEntity
  8
035-DWG
100
AcDbVertex
100
AcDb2dVertex
 10
312.450111
 20
1549.55434
 30
0.0
  0
SEQEND
  5
188
100
AcDbEntity
  8
035-DWG
  0
LINE
  5
189
100
AcDbEntity
  8
035-DWG
100
AcDbLine
 10
308.233346
 20
1540.806195
 30
0.0
 11
311.66743
 21
1549.783311
 31
0.0
  0
ARC
  5
18A
100
AcDbEntity
  8
035-DWG
100
AcDbCircle
 10
307.150401
 20
1541.139517
 30
0.0
 40
2.2
100
AcDbArc
 50
279.538594
 51
340.577965
  0
ARC
  5
18B
100
AcDbEntity
  8
035-DWG
100
AcDbCircle
 10
293.927231
 20
1541.16948
 30
0.0
 40
1.0
100
AcDbArc
 50
281.376295
 51
327.322473
  0
LINE
  5
18C
100
AcDbEntity
  8
035-DWG
100
AcDbLine
 10
294.768954
 20
1540.629569
 30
0.0
 11
303.355173
 21
1554.015526
 31
0.0
  0
LINE
  5
18D
100
AcDbEntity
  8
025-DWG
100
AcDbLine
 10
294.768954
 20
1540.629569
 30
0.0
 11
308.233346
 21
1540.806195
 31
0.0
  0
LINE
  5
18E
100
AcDbEntity
  8
025-DWG
100
AcDbLine
 10
294.124483
 20
1540.189127
 30
0.0
 11
307.466134
 21
1540.177489
 31
0.0
  0
POLYLINE
  5
18F
100
AcDbEntity
  8
035-DWG
100
AcDb2dPolyline
 66
     1
 10
0.0
 20
0.0
 30
0.0
 70
     2
  0
VERTEX
  5
190
100
AcDbEntity
  8
035-DWG
100
AcDbVertex
100
AcDb2dVertex
 10
303.355173
 20
1554.015526
 30
0.0
 42
-0.057529
  0
VERTEX
  5
191
100
AcDbEntity
  8
035-DWG
100
AcDbVertex
100
AcDb2dVertex
 10
304.869371
 20
1554.29449
 30
0.0
 42
-0.057529
 70
     1
  0
VERTEX
  5
192
100
AcDbEntity
  8
035-DWG
100
AcDbVertex
100
AcDb2dVertex
 10
306.407303
 20
1554.221114
 30
0.0
 42
-0.135368
  0
VERTEX
  5
193
100
AcDbEntity
  8
035-DWG
100
AcDbVertex
100
AcDb2dVertex
 10
309.649317
 20
1552.727557
 30
0.0
 42
-0.135368
 70
     1
  0
VERTEX
  5
194
100
AcDbEntity
  8
035-DWG
100
AcDbVertex
100
AcDb2dVertex
 10
311.66743
 20
1549.783311
 30
0.0
  0
SEQEND
  5
195
100
AcDbEntity
  8
035-DWG
  0
LINE
  5
196
100
AcDbEntity
  8
035-DWG
  6
CONTINUOUS
100
AcDbLine
 10
585.692363
 20
1469.291058
 30
0.0
 11
543.786349
 21
1460.384338
 31
0.0
  0
LWPOLYLINE
  5
197
100
AcDbEntity
  8
025-DWG
  6
CONTINUOUS
100
AcDbPolyline
 90
        3
 70
   128
 43
0.0
 10
544.121214
 20
1461.253632
 10
557.124515
 20
1464.028976
 10
585.39917
 20
1470.063731
  0
LINE
  5
198
100
AcDbEntity
  8
025-DWG
100
AcDbLine
 10
521.675517
 20
1540.189127
 30
0.0
 11
508.333866
 21
1540.177489
 31
0.0
  0
LINE
  5
199
100
AcDbEntity
  8
025-DWG
100
AcDbLine
 10
521.031046
 20
1540.629569
 30
0.0
 11
507.566654
 21
1540.806195
 31
0.0
  0
LINE
  5
19A
100
AcDbEntity
  8
035-DWG
100
AcDbLine
 10
521.031046
 20
1540.629569
 30
0.0
 11
512.444827
 21
1554.015526
 31
0.0
  0
LINE
  5
19B
100
AcDbEntity
  8
035-DWG
100
AcDbLine
 10
535.665712
 20
1534.369017
 30
0.0
 11
508.285033
 21
1538.969933
 31
0.0
  0
LINE
  5
19C
100
AcDbEntity
  8
035-DWG
100
AcDbLine
 10
535.715772
 20
1535.545814
 30
0.0
 11
508.333866
 21
1540.177489
 31
0.0
  0
LINE
  5
19D
100
AcDbEntity
  8
025-DWG
100
AcDbLine
 10
521.031046
 20
1485.828086
 30
0.0
 11
507.566654
 21
1485.65146
 31
0.0
  0
LINE
  5
19E
100
AcDbEntity
  8
025-DWG
100
AcDbLine
 10
521.675517
 20
1486.268528
 30
0.0
 11
508.333866
 21
1486.280166
 31
0.0
  0
LINE
  5
19F
100
AcDbEntity
  8
035-DWG
100
AcDbLine
 10
535.715772
 20
1490.911841
 30
0.0
 11
508.333866
 21
1486.280166
 31
0.0
  0
LINE
  5
1A0
100
AcDbEntity
  8
035-DWG
100
AcDbLine
 10
535.665712
 20
1492.088638
 30
0.0
 11
508.285033
 21
1487.487722
 31
0.0
  0
LINE
  5
1A1
100
AcDbEntity
  8
035-DWG
100
AcDbLine
 10
521.031046
 20
1485.828086
 30
0.0
 11
512.444827
 21
1472.442129
 31
0.0
  0
LINE
  5
1A2
100
AcDbEntity
  8
035-DWG
100
AcDbLine
 10
507.566654
 20
1485.65146
 30
0.0
 11
504.13257
 21
1476.674344
 31
0.0
  0
ARC
  5
1A3
100
AcDbEntity
  8
035-DWG
100
AcDbCircle
 10
508.649599
 20
1485.318138
 30
0.0
 40
2.2
100
AcDbArc
 50
99.538594
 51
160.577965
  0
LINE
  5
1A4
100
AcDbEntity
  8
035-DWG
100
AcDbLine
 10
506.57479
 20
1486.049691
 30
0.0
 11
503.349889
 21
1476.903315
 31
0.0
  0
LINE
  5
1A5
100
AcDbEntity
  8
035-DWG
100
AcDbLine
 10
504.13257
 20
1476.674344
 30
0.0
 11
503.349889
 21
1476.903315
 31
0.0
  0
ARC
  5
1A6
100
AcDbEntity
  8
035-DWG
100
AcDbCircle
 10
508.500648
 20
1485.294172
 30
0.0
 40
1.0
100
AcDbArc
 50
99.600756
 51
159.066275
  0
POLYLINE
  5
1A7
100
AcDbEntity
  8
035-DWG
100
AcDb2dPolyline
 66
     1
 10
0.0
 20
0.0
 30
0.0
 70
     2
  0
VERTEX
  5
1A8
100
AcDbEntity
  8
035-DWG
100
AcDbVertex
100
AcDb2dVertex
 10
512.444827
 20
1472.442129
 30
0.0
 42
-0.057529
  0
VERTEX
  5
1A9
100
AcDbEntity
  8
035-DWG
100
AcDbVertex
100
AcDb2dVertex
 10
510.930629
 20
1472.163165
 30
0.0
 42
-0.057529
 70
     1
  0
VERTEX
  5
1AA
100
AcDbEntity
  8
035-DWG
100
AcDbVertex
100
AcDb2dVertex
 10
509.392697
 20
1472.236541
 30
0.0
 42
-0.135368
  0
VERTEX
  5
1AB
100
AcDbEntity
  8
035-DWG
100
AcDbVertex
100
AcDb2dVertex
 10
506.150683
 20
1473.730098
 30
0.0
 42
-0.135368
 70
     1
  0
VERTEX
  5
1AC
100
AcDbEntity
  8
035-DWG
100
AcDbVertex
100
AcDb2dVertex
 10
504.13257
 20
1476.674344
 30
0.0
  0
SEQEND
  5
1AD
100
AcDbEntity
  8
035-DWG
  0
POLYLINE
  5
1AE
100
AcDbEntity
  8
035-DWG
100
AcDb2dPolyline
 66
     1
 10
0.0
 20
0.0
 30
0.0
  0
VERTEX
  5
1AF
100
AcDbEntity
  8
035-DWG
100
AcDbVertex
100
AcDb2dVertex
 10
508.20674
 20
1472.544416
 30
0.0
 42
-0.119813
  0
VERTEX
  5
1B0
100
AcDbEntity
  8
035-DWG
100
AcDbVertex
100
AcDb2dVertex
 10
505.368001
 20
1473.959068
 30
0.0
 42
-0.135368
  0
VERTEX
  5
1B1
100
AcDbEntity
  8
035-DWG
100
AcDbVertex
100
AcDb2dVertex
 10
503.349889
 20
1476.903315
 30
0.0
  0
SEQEND
  5
1B2
100
AcDbEntity
  8
035-DWG
  0
ARC
  5
1B3
100
AcDbEntity
  8
035-DWG
100
AcDbCircle
 10
508.649599
 20
1541.139517
 30
0.0
 40
2.2
100
AcDbArc
 50
199.422035
 51
260.461406
  0
LINE
  5
1B4
100
AcDbEntity
  8
035-DWG
100
AcDbLine
 10
507.566654
 20
1540.806195
 30
0.0
 11
504.13257
 21
1549.783311
 31
0.0
  0
POLYLINE
  5
1B5
100
AcDbEntity
  8
035-DWG
100
AcDb2dPolyline
 66
     1
 10
0.0
 20
0.0
 30
0.0
  0
VERTEX
  5
1B6
100
AcDbEntity
  8
035-DWG
100
AcDbVertex
100
AcDb2dVertex
 10
508.20674
 20
1553.913239
 30
0.0
 42
0.119813
  0
VERTEX
  5
1B7
100
AcDbEntity
  8
035-DWG
100
AcDbVertex
100
AcDb2dVertex
 10
505.368001
 20
1552.498587
 30
0.0
 42
0.135368
  0
VERTEX
  5
1B8
100
AcDbEntity
  8
035-DWG
100
AcDbVertex
100
AcDb2dVertex
 10
503.349889
 20
1549.55434
 30
0.0
  0
SEQEND
  5
1B9
100
AcDbEntity
  8
035-DWG
  0
POLYLINE
  5
1BA
100
AcDbEntity
  8
035-DWG
100
AcDb2dPolyline
 66
     1
 10
0.0
 20
0.0
 30
0.0
 70
     2
  0
VERTEX
  5
1BB
100
AcDbEntity
  8
035-DWG
100
AcDbVertex
100
AcDb2dVertex
 10
512.444827
 20
1554.015526
 30
0.0
 42
0.057529
  0
VERTEX
  5
1BC
100
AcDbEntity
  8
035-DWG
100
AcDbVertex
100
AcDb2dVertex
 10
510.930629
 20
1554.29449
 30
0.0
 42
0.057529
 70
     1
  0
VERTEX
  5
1BD
100
AcDbEntity
  8
035-DWG
100
AcDbVertex
100
AcDb2dVertex
 10
509.392697
 20
1554.221114
 30
0.0
 42
0.135368
  0
VERTEX
  5
1BE
100
AcDbEntity
  8
035-DWG
100
AcDbVertex
100
AcDb2dVertex
 10
506.150683
 20
1552.727557
 30
0.0
 42
0.135368
 70
     1
  0
VERTEX
  5
1BF
100
AcDbEntity
  8
035-DWG
100
AcDbVertex
100
AcDb2dVertex
 10
504.13257
 20
1549.783311
 30
0.0
  0
SEQEND
  5
1C0
100
AcDbEntity
  8
035-DWG
  0
LINE
  5
1C1
100
AcDbEntity
  8
035-DWG
100
AcDbLine
 10
504.13257
 20
1549.783311
 30
0.0
 11
503.349889
 21
1549.55434
 31
0.0
  0
LINE
  5
1C2
100
AcDbEntity
  8
035-DWG
100
AcDbLine
 10
506.57479
 20
1540.407964
 30
0.0
 11
503.349889
 21
1549.55434
 31
0.0
  0
ARC
  5
1C3
100
AcDbEntity
  8
035-DWG
100
AcDbCircle
 10
508.500648
 20
1541.163483
 30
0.0
 40
1.0
100
AcDbArc
 50
200.933725
 51
260.399244
  0
LWPOLYLINE
  5
1C4
100
AcDbEntity
  8
025-DWG
  6
CONTINUOUS
100
AcDbPolyline
 90
       15
 70
   128
 43
0.0
 10
586.556781
 20
1471.235102
 10
587.814718
 20
1477.889027
 10
588.891656
 20
1484.618427
 10
589.782527
 20
1491.40717
 10
590.482262
 20
1498.239125
 10
590.998964
 20
1499.308688
 10
591.308478
 20
1506.411634
 10
591.409591
 20
1513.527759
 10
591.301092
 20
1520.636856
 10
590.996447
 20
1527.498275
 10
590.49775
 20
1528.33772
 10
589.807717
 20
1535.13745
 10
588.913124
 20
1541.995369
 10
587.827599
 20
1548.795462
 10
586.556781
 20
1555.521526
  0
LWPOLYLINE
  5
1C5
100
AcDbEntity
  8
035-DWG
  6
CONTINUOUS
100
AcDbPolyline
 90
       15
 70
   128
 43
0.0
 10
587.621861
 20
1555.52142
 10
588.88552
 20
1548.867503
 10
589.967358
 20
1542.138112
 10
590.862281
 20
1535.349378
 10
591.565198
 20
1528.517432
 10
592.08425
 20
1527.447879
 10
592.395171
 20
1520.344942
 10
592.496743
 20
1513.228827
 10
592.38775
 20
1506.11974
 10
592.081718
 20
1499.258344
 10
591.580753
 20
1498.418922
 10
590.88758
 20
1491.619215
 10
589.988919
 20
1484.761319
 10
588.898457
 20
1477.96125
 10
587.621861
 20
1471.235208
  0
LWPOLYLINE
  5
1C6
100
AcDbEntity
  8
025-DWG
  6
CONTINUOUS
100
AcDbPolyline
 90
       12
 70
   128
 43
0.0
 10
574.603025
 20
1542.974377
 10
575.535878
 20
1536.494864
 10
576.28417
 20
1529.965973
 10
576.847694
 20
1523.352988
 10
577.218439
 20
1522.711836
 10
577.396162
 20
1515.908116
 10
577.370015
 20
1509.099687
 10
577.137327
 20
1502.24803
 10
576.698921
 20
1501.417293
 10
576.15167
 20
1495.503781
 10
575.45208
 20
1489.621544
 10
574.603025
 20
1483.782251
  0
LWPOLYLINE
  5
1C7
100
AcDbEntity
  8
025-DWG
  6
CONTINUOUS
100
AcDbPolyline
 90
       12
 70
   128
 43
0.0
 10
573.70169
 20
1484.088025
 10
574.626836
 20
1490.481995
 10
575.369938
 20
1496.924958
 10
575.930785
 20
1497.451174
 10
576.301412
 20
1504.005476
 10
576.481651
 20
1510.720526
 10
576.460665
 20
1517.440523
 10
576.23583
 20
1524.203513
 10
575.807906
 20
1524.946145
 10
575.260718
 20
1530.889579
 10
574.557644
 20
1536.801116
 10
573.70169
 20
1542.668603
  0
LINE
  5
1C8
100
AcDbEntity
  8
035-DWG
100
AcDbLine
 10
546.294106
 20
1493.023347
 30
0.0
 11
546.294106
 21
1533.434308
 31
0.0
  0
LINE
  5
1C9
100
AcDbEntity
  8
035-DWG
100
AcDbLine
 10
537.548852
 20
1493.081027
 30
0.0
 11
537.548852
 21
1533.376628
 31
0.0
  0
LINE
  5
1CA
100
AcDbEntity
  8
035-DWG
100
AcDbLine
 10
536.5
 20
1493.074812
 30
0.0
 11
536.5
 21
1533.382843
 31
0.0
  0
ARC
  5
1CB
100
AcDbEntity
  8
025-DWG
100
AcDbCircle
 10
407.9
 20
1513.228827
 30
0.0
 40
122.0
100
AcDbArc
 50
349.391714
 51
10.608286
  0
ARC
  5
1CC
100
AcDbEntity
  8
025-DWG
100
AcDbCircle
 10
407.9
 20
1513.228827
 30
0.0
 40
118.0
100
AcDbArc
 50
348.677504
 51
11.322496
  0
LINE
  5
1CD
100
AcDbEntity
  8
025-DWG
  6
CONTINUOUS
100
AcDbLine
 10
571.954175
 20
1481.260549
 30
0.0
 11
549.601314
 21
1478.901324
 31
0.0
  0
LINE
  5
1CE
100
AcDbEntity
  8
025-DWG
  6
CONTINUOUS
100
AcDbLine
 10
549.885483
 20
1480.096325
 30
0.0
 11
571.935696
 21
1482.413895
 31
0.0
  0
ARC
  5
1CF
100
AcDbEntity
  8
035-DWG
100
AcDbCircle
 10
544.094106
 20
1493.023347
 30
0.0
 40
2.2
100
AcDbArc
 50
281.376295
 51
0.0
  0
ARC
  5
1D0
100
AcDbEntity
  8
035-DWG
100
AcDbCircle
 10
521.872769
 20
1485.288175
 30
0.0
 40
1.0
100
AcDbArc
 50
101.376295
 51
147.322473
  0
ARC
  5
1D1
100
AcDbEntity
  8
035-DWG
100
AcDbCircle
 10
535.5
 20
1493.074812
 30
0.0
 40
1.0
100
AcDbArc
 50
279.538594
 51
0.0
  0
ARC
  5
1D2
100
AcDbEntity
  8
035-DWG
100
AcDbCircle
 10
535.348852
 20
1493.081027
 30
0.0
 40
2.2
100
AcDbArc
 50
279.600756
 51
0.0
  0
LINE
  5
1D3
100
AcDbEntity
  8
025-DWG
100
AcDbLine
 10
546.294106
 20
1493.023347
 30
0.0
 11
537.548852
 21
1493.081027
 31
0.0
  0
LINE
  5
1D4
100
AcDbEntity
  8
025-DWG
100
AcDbLine
 10
544.52806
 20
1490.866571
 30
0.0
 11
535.715772
 21
1490.911841
 31
0.0
  0
LINE
  5
1D5
100
AcDbEntity
  8
035-DWG
100
AcDbLine
 10
544.52806
 20
1490.866571
 30
0.0
 11
521.675517
 21
1486.268528
 31
0.0
  0
LWPOLYLINE
  5
1D6
100
AcDbEntity
  8
025-DWG
  6
CONTINUOUS
100
AcDbPolyline
 90
        9
 70
   128
 43
0.0
 10
586.556781
 20
1471.235102
 10
586.754299
 20
1471.197205
 10
586.947268
 20
1471.168986
 10
587.127856
 20
1471.151589
 10
587.288736
 20
1471.14572
 10
587.42338
 20
1471.151618
 10
587.526324
 20
1471.169043
 10
587.593391
 20
1471.197289
 10
587.621861
 20
1471.235208
  0
LWPOLYLINE
  5
1D7
100
AcDbEntity
  8
025-DWG
  6
CONTINUOUS
100
AcDbPolyline
 90
        9
 70
   128
 43
0.0
 10
585.39917
 20
1470.063731
 10
585.439659
 20
1469.901831
 10
585.481489
 20
1469.750938
 10
585.523409
 20
1469.615573
 10
585.564163
 20
1469.499793
 10
585.602528
 20
1469.407066
 10
585.637356
 20
1469.34017
 10
585.667603
 20
1469.301111
 10
585.692363
 20
1469.291058
  0
LWPOLYLINE
  5
1D8
100
AcDbEntity
  8
025-DWG
  6
CONTINUOUS
100
AcDbPolyline
 90
        5
 70
   128
 43
0.0
 10
585.39917
 20
1470.063731
 10
585.868991
 20
1470.251514
 10
586.246795
 20
1470.581517
 10
586.497901
 20
1471.024991
 10
586.556781
 20
1471.235102
  0
LWPOLYLINE
  5
1D9
100
AcDbEntity
  8
035-DWG
  6
CONTINUOUS
100
AcDbPolyline
 90
        5
 70
   128
 43
0.0
 10
587.621861
 20
1471.235208
 10
587.314193
 20
1470.446601
 10
586.760494
 20
1469.805461
 10
586.023848
 20
1469.385815
 10
585.692363
 20
1469.291058
  0
LWPOLYLINE
  5
1DA
100
AcDbEntity
  8
025-DWG
  6
CONTINUOUS
100
AcDbPolyline
 90
        5
 70
   128
 43
0.0
 10
571.935696
 20
1482.413895
 10
572.58769
 20
1482.597782
 10
573.135076
 20
1482.982973
 10
573.530608
 20
1483.539402
 10
573.70169
 20
1484.088025
  0
LWPOLYLINE
  5
1DB
100
AcDbEntity
  8
025-DWG
  6
CONTINUOUS
100
AcDbPolyline
 90
        9
 70
   128
 43
0.0
 10
573.70169
 20
1484.088025
 10
573.714472
 20
1484.055541
 10
573.761831
 20
1484.018625
 10
573.842089
 20
1483.978584
 10
573.952397
 20
1483.93684
 10
574.088842
 20
1483.894874
 10
574.246585
 20
1483.854174
 10
574.42003
 20
1483.816183
 10
574.603025
 20
1483.782251
  0
LWPOLYLINE
  5
1DC
100
AcDbEntity
  8
025-DWG
  6
CONTINUOUS
100
AcDbPolyline
 90
        5
 70
   128
 43
0.0
 10
574.603025
 20
1483.782251
 10
574.271492
 20
1482.809081
 10
573.632911
 20
1482.004341
 10
572.758734
 20
1481.461118
 10
571.954175
 20
1481.260549
  0
LWPOLYLINE
  5
1DD
100
AcDbEntity
  8
025-DWG
  6
CONTINUOUS
100
AcDbPolyline
 90
        9
 70
   128
 43
0.0
 10
571.935696
 20
1482.413895
 10
571.916174
 20
1482.388685
 10
571.902367
 20
1482.318824
 10
571.89491
 20
1482.207531
 10
571.894147
 20
1482.059932
 10
571.900113
 20
1481.882827
 10
571.912532
 20
1481.684374
 10
571.930834
 20
1481.473713
 10
571.954175
 20
1481.260549
  0
LINE
  5
1DE
100
AcDbEntity
  8
025-DWG
  6
CONTINUOUS
100
AcDbLine
 10
571.935696
 20
1544.342732
 30
0.0
 11
549.813605
 21
1546.667858
 31
0.0
  0
LINE
  5
1DF
100
AcDbEntity
  8
025-DWG
  6
CONTINUOUS
100
AcDbLine
 10
549.526626
 20
1547.863187
 30
0.0
 11
571.954175
 21
1545.496078
 31
0.0
  0
ARC
  5
1E0
100
AcDbEntity
  8
035-DWG
100
AcDbCircle
 10
544.094106
 20
1533.434308
 30
0.0
 40
2.2
100
AcDbArc
 50
0.0
 51
78.623705
  0
ARC
  5
1E1
100
AcDbEntity
  8
035-DWG
100
AcDbCircle
 10
521.872769
 20
1541.16948
 30
0.0
 40
1.0
100
AcDbArc
 50
212.677527
 51
258.623705
  0
ARC
  5
1E2
100
AcDbEntity
  8
035-DWG
100
AcDbCircle
 10
535.5
 20
1533.382843
 30
0.0
 40
1.0
100
AcDbArc
 50
0.0
 51
80.461406
  0
ARC
  5
1E3
100
AcDbEntity
  8
035-DWG
100
AcDbCircle
 10
535.348852
 20
1533.376628
 30
0.0
 40
2.2
100
AcDbArc
 50
0.0
 51
80.399244
  0
LINE
  5
1E4
100
AcDbEntity
  8
025-DWG
100
AcDbLine
 10
546.294106
 20
1533.434308
 30
0.0
 11
537.548852
 21
1533.376628
 31
0.0
  0
LINE
  5
1E5
100
AcDbEntity
  8
025-DWG
100
AcDbLine
 10
544.52806
 20
1535.591084
 30
0.0
 11
535.715772
 21
1535.545814
 31
0.0
  0
LINE
  5
1E6
100
AcDbEntity
  8
035-DWG
100
AcDbLine
 10
544.52806
 20
1535.591084
 30
0.0
 11
521.675517
 21
1540.189127
 31
0.0
  0
LWPOLYLINE
  5
1E7
100
AcDbEntity
  8
025-DWG
  6
CONTINUOUS
100
AcDbPolyline
 90
        9
 70
   128
 43
0.0
 10
585.39917
 20
1556.692897
 10
585.439659
 20
1556.854797
 10
585.481489
 20
1557.00569
 10
585.523409
 20
1557.141055
 10
585.564163
 20
1557.256835
 10
585.602528
 20
1557.349562
 10
585.637356
 20
1557.416457
 10
585.667603
 20
1557.455517
 10
585.692363
 20
1557.46557
  0
LWPOLYLINE
  5
1E8
100
AcDbEntity
  8
025-DWG
  6
CONTINUOUS
100
AcDbPolyline
 90
        9
 70
   128
 43
0.0
 10
586.556781
 20
1555.521526
 10
586.754299
 20
1555.559423
 10
586.947268
 20
1555.587642
 10
587.127856
 20
1555.605039
 10
587.288736
 20
1555.610908
 10
587.42338
 20
1555.60501
 10
587.526324
 20
1555.587585
 10
587.593391
 20
1555.559339
 10
587.621861
 20
1555.52142
  0
LWPOLYLINE
  5
1E9
100
AcDbEntity
  8
025-DWG
  6
CONTINUOUS
100
AcDbPolyline
 90
        5
 70
   128
 43
0.0
 10
586.556781
 20
1555.521526
 10
586.367706
 20
1556.00414
 10
586.025386
 20
1556.394899
 10
585.57082
 20
1556.645413
 10
585.39917
 20
1556.692897
  0
LWPOLYLINE
  5
1EA
100
AcDbEntity
  8
035-DWG
  6
CONTINUOUS
100
AcDbPolyline
 90
        5
 70
   128
 43
0.0
 10
585.692363
 20
1557.46557
 10
586.47412
 20
1557.154696
 10
587.106805
 20
1556.604155
 10
587.52319
 20
1555.871561
 10
587.621861
 20
1555.52142
  0
LWPOLYLINE
  5
1EB
100
AcDbEntity
  8
025-DWG
  6
CONTINUOUS
100
AcDbPolyline
 90
        5
 70
   128
 43
0.0
 10
573.70169
 20
1542.668603
 10
573.47562
 20
1543.323774
 10
573.04041
 20
1543.861669
 10
572.441397
 20
1544.221607
 10
571.935696
 20
1544.342732
  0
LWPOLYLINE
  5
1EC
100
AcDbEntity
  8
025-DWG
  6
CONTINUOUS
100
AcDbPolyline
 90
        9
 70
   128
 43
0.0
 10
573.70169
 20
1542.668603
 10
573.714472
 20
1542.701086
 10
573.761831
 20
1542.738003
 10
573.842089
 20
1542.778044
 10
573.952397
 20
1542.819788
 10
574.088842
 20
1542.861754
 10
574.246585
 20
1542.902454
 10
574.42003
 20
1542.940444
 10
574.603025
 20
1542.974377
  0
LWPOLYLINE
  5
1ED
100
AcDbEntity
  8
025-DWG
  6
CONTINUOUS
100
AcDbPolyline
 90
        5
 70
   128
 43
0.0
 10
571.954175
 20
1545.496078
 10
572.925248
 20
1545.222389
 10
573.746291
 20
1544.645747
 10
574.336786
 20
1543.820831
 10
574.603025
 20
1542.974377
  0
LWPOLYLINE
  5
1EE
100
AcDbEntity
  8
025-DWG
  6
CONTINUOUS
100
AcDbPolyline
 90
        9
 70
   128
 43
0.0
 10
571.935696
 20
1544.342732
 10
571.916174
 20
1544.367943
 10
571.902367
 20
1544.437804
 10
571.89491
 20
1544.549097
 10
571.894147
 20
1544.696695
 10
571.900113
 20
1544.873801
 10
571.912532
 20
1545.072254
 10
571.930834
 20
1545.282915
 10
571.954175
 20
1545.496078
  0
ENDSEC
  0
SECTION
  2
OBJECTS
  0
DICTIONARY
  5
1A
100
AcDbDictionary
  3
ACAD_GROUP
350
18
  3
ACAD_MLINESTYLE
350
19
  0
DICTIONARY
  5
18
102
{ACAD_REACTORS
330
1A
102
}
100
AcDbDictionary
  0
DICTIONARY
  5
19
102
{ACAD_REACTORS
330
1A
102
}
100
AcDbDictionary
  3
STANDARD
350
1D
  0
MLINESTYLE
  5
1D
102
{ACAD_REACTORS
330
19
102
}
100
AcDbMlineStyle
  2
STANDARD
 70
     0
  3

 62
     0
 51
90.0
 52
90.0
 71
     2
 49
0.5
 62
   256
  6
BYLAYER
 49
-0.5
 62
   256
  6
BYLAYER
  0
ENDSEC
  0
EOF
